Gametabs
Home
Tabs
Random

Sandopolis Zone Act 1

Average rating: 5.000

1 ratings

Composer:

Tabber:

Style:

Instrument:

Created: January 24, 2015 at 12:00 AM

            Sonic and Knuckles - Sandopolis Act 1

Composers -  Sachio Ogawa, Tatsuyuki Maeda, Tomonori Sawada, Jun Senoue, Miyoko Takaoka, Masanori Hikichi, Howard Drossin

Tabbed by andersongs87

Tuning:
Guitar Standard (EADGBe)
Bass (EADG)

MP3 Download : http://www.mediafire.com/?lh71pu6xeh54ht7
Backing Track : https://www.mediafire.com/?aw1k1x0ftub26dp
Youtube Cover : https://www.youtube.com/watch?v=dxgJFS0rl2o

01/23/2015

Intro Guitar
e--------------|---------------------|-------------------|-10----------12----------|
B------9-10-12-|-10-9----------9--10-|-12-10-12-10-12-13-|----12-13-15----15-13-12-|
G-9-10---------|------10-9--10-------|-------------------|-------------------------|
D--------------|---------------------|-------------------|-------------------------|
A--------------|---------------------|-------------------|-------------------------|
E--------------|---------------------|-------------------|-------------------------|


Guitar Lead
e----------------------------|---------------------------12~-|-10-10------------------------|
B-10-------9--12-10-13-12-9~-|-10---------9-12-10-13-12------|-------13-13-12-12-10-9-10-12-|
G----9-10~-------------------|-----9-10~---------------------|------------------------------|
D----------------------------|-------------------------------|------------------------------|
A----------------------------|-------------------------------|------------------------------|
E----------------------------|-------------------------------|------------------------------|

e---------------------|-10--------------------|
B-9-10-12-13-12-10-12-|----13-12-10-9---------|
G---------------------|----------------10-9-7-|
D---------------------|-----------------------|
A---------------------|-----------------------|
E---------------------|-----------------------|

e--------------------------|-------------------------|------------------------|
B------9--9h10p9-----------|-------------------------|------9--9h10p9---------|
G-9-10-------------10----9-|-9-----------------------|-9-10-------------10--9-|
D--------------------------|---12--10--9h10p9--6-----|------------------------|
A--------------------------|-----------------------7-|------------------------|
E--------------------------|-------------------------|------------------------|

e-------------------|-------------------|---------|-----------------|
B-10h12p10----10-12-|-10-12-13-13-12-12-|-9-10-12-|-13-12-10-9-10---|
G----------13-------|-------------------|---------|---------------9-|
D-------------------|-------------------|---------|-----------------|
A-------------------|-------------------|---------|-----------------|
E-------------------|-------------------|---------|-----------------|

e---------------------------|----------|-10--10-12-10-12-13-12-|
B-10-12-13-13-12-12-9-10-12-|-13-12-10-|---13------------------|
G---------------------------|----------|-----------------------|
D---------------------------|----------|-----------------------|
A---------------------------|----------|-----------------------|
E---------------------------|----------|-----------------------|

Bass

G----------------------------------------|----------------------------------------------|
D----------------------------------------|--------------------------------0-------------|
A-0-----0-----3-----0------------------2-|--0-----0-----3-----0-----------------------2-|
E--------------------------4-------------|----------------------------------------------|

G----------------------------------------|----------------------------------------------|
D----------------------------------------|--------------------------0-------------------|
A-0-----0-----3-----0------------------2-|--0-----0-----3-----0-----------2-----------2-|
E--------------------------4-------------|--------------------------------------4-------|

G----------------------------------------|----------------------------------------------|
D--------------------------0-------------|--------------------------------0-------------|
A-0-----0-----3-----0------------------3-|--------------3-----------------------------2-|
E----------------------------------------|--4-----4-----------4-------------------------|

G----------------------------------------|----------------------------------------------|
D--------------------------0-------------|--------------------------------0-------------|
A-0-----0-----3-----0------------------3-|--------------3-----------------------------2-|
E----------------------------------------|--4-----4-----------4-------------------------|

G----------------------------------------|----------------------------------------------|
D--------------------------0-------------|--------------------------------0-------------|
A-0-----0-----3-----0------------------3-|--------------3-----------------------------2-|
E----------------------------------------|--4-----4-----------4-------------------------|

G----------------------------------------|----------------------------------------------|
D--------------------------0-------------|--------------------------------0-------------|
A-0-----0-----3-----0------------------3-|--------------3-----------------------------2-|
E----------------------------------------|--4-----4-----------4-------------------------|

G-------------------|-------------------|
D-------------------|-------------------|
A-------------------|-------------------|
E--0-----------0--0-|--0-----------0--0-|

G-------------------|-------------------|
D-------------------|-------------------|
A-------------------|-------------------|
E--0-----------0--0-|--0-----------0--0-|

G-------------------|-------------------|
D-------------------|-------------------|
A-------------------|-------------------|
E--0-----------0--0-|--0-----------0--0-|

G-------------------|-------------------|
D-------------------|-------------------|
A-------------------|-------------------|
E--0-----------0--0-|--0-----------0--0-|

G----------------------------|----------------------------|
D--------------------0-------|--------2-----2--0----------|
A--0--0--3-----0--0----------|--------------------3--2----|
E----------------------------|--4--4----------------------|

G----------------------------|----------------------------|
D--------------------0-------|--------2-----2--0----------|
A--0--0--3-----0--0----------|--------------------3--2----|
E----------------------------|--4--4----------------------|

G----------------------------|----------------------------|
D--------------------0-------|--------2-----2--0----------|
A--0--0--3-----0--0----------|--------------------3--2----|
E----------------------------|--4--4----------------------|

G----------------------------|----------------------------|
D--------------------0-------|--------2-----2--0----------|
A--0--0--3-----0--0----------|--------------------3--2----|
E----------------------------|--4--4----------------------|

G----------------------------------------------------|
D--------------------------------0-------------------|
A--0-----0-----3-----0-----------------------3-------|
E----------------------------------------------------|

G----------------------------------------------------|
D--------------------------------0-------------------|
A--------------3-----------------------------2-------|
E--4-----4-----------4-------------------------------|

G----------------------------------------------------|
D--------------------------------0-------------------|
A--0-----0-----3-----0-----------------------3-------|
E----------------------------------------------------|

G----------------------------------------------------|
D--------------------------------0-------------------|
A--------------3-----------------------------2-------|
E--4-----4-----------4-------------------------------|

G----------------------------------------------------|
D--------------------------------0-------------------|
A--0-----0-----3-----0-----------------------3-------|
E----------------------------------------------------|

G----------------------------------------------------|
D--------------------------------0-------------------|
A--------------3-----------------------------2-------|
E--4-----4-----------4-------------------------------|

G----------------------------------------------------|
D--------------------------------0-------------------|
A--0-----0-----3-----0-----------------------3-------|
E----------------------------------------------------|

G----------------------------------------------------|
D--------------------------------0-------------------|
A--------------3-----------------------------2-------|
E--4-----4-----------4-------------------------------|

G-------------------|-------------------|
D-------------------|-------------------|
A-------------------|-------------------|
E--0-----------0--0-|--0-----------0--0-|

G-------------------|-------------------|
D-------------------|-------------------|
A-------------------|-------------------|
E--0-----------0--0-|--0-----------0--0-|

G-------------------|-------------------|
D-------------------|-------------------|
A-------------------|-------------------|
E--0-----------0--0-|--0-----------0--0-|

G-------------------|-------------------|
D-------------------|-------------------|
A-------------------|-------------------|
E--0-----------0--0-|--0-----------0--0-|

G----------------------------|----------------------------|
D--------------------0-------|--------2-----2--0----------|
A--0--0--3-----0--0----------|--------------------3--2----|
E----------------------------|--4--4----------------------|

G----------------------------|----------------------------|
D--------------------0-------|--------2-----2--0----------|
A--0--0--3-----0--0----------|--------------------3--2----|
E----------------------------|--4--4----------------------|

G----------------------------|----------------------------|
D--------------------0-------|--------2-----2--0----------|
A--0--0--3-----0--0----------|--------------------3--2----|
E----------------------------|--4--4----------------------|

G----------------------------|----------------------------|
D--------------------0-------|--------2-----2--0----------|
A--0--0--3-----0--0----------|--------------------3--2----|
E----------------------------|--4--4-------------------5~-|

        
Comments

No comments yet