Gametabs
Home
Tabs
Random

Main Theme

Average rating: 4.000

3 ratings

Composer:

Tabber:

Style:

Instrument:

Created: December 28, 2007 at 12:00 AM

            Sonic 3 and Knuckles Main Theme
Tabbed by Jake Mackenzie

This is the main theme from Sonic 3 and Sonic & Knuckles. It can be heard in 
three different tunes from the game. (this is my first tab submitted anywhere 
so if you don’t think its right, tell me.)

PART ONE:

e--5----------5----------------10--10--10--10--9--5----------5--7--
B-----7--5------7--3--5----------------------------------5--7------
G------------------------------------------------------------------
D------------------------------------------------------------------
A------------------------------------------------------------------
E------------------------------------------------------------------

You can then either play that over and over again to get the Invincibility and 
Super themes, or then add one of these riffs to make the main menu and ending 
themes respectively.

MAIN MENU:

e--5----------5----------------10--9--7-------9-------------------
B-----7--5------7--3--5------------------10-----10--10--8--8--10--
G-----------------------------------------------------------------
D-----------------------------------------------------------------
A-----------------------------------------------------------------
E-----------------------------------------------------------------

ENDING:

e--5----------5----------------10--10--10--10--9--5------5----12--8-------8--10--
B-----7--5------7--3--5---------------------------------8----------------11------
G--------------------------------------------------------------------------------
D--------------------------------------------------------------------------------
A--------------------------------------------------------------------------------
E--------------------------------------------------------------------------------

        
Comments

@Solid Snake (July 22, 2008 at 6:20 PM)

Spot on.