Gametabs
Home
Tabs
Random

Lava Reef Act 1

Average rating: 5.000

1 ratings

Composer:

Tabber:

Style:

Instrument:

Created: August 10, 2013 at 12:00 AM

            Sonic & Knuckles - Lava Reef act 1 guitar tab

08/06/2013

tabber: Kenkiske

Actually my fav music stage with flying battery :D

Intro/Rhythm guitar:
             A                         F                G          
|-----------------------------------------------------------------|
|-----22----22----22----22----22----18----18----------20----20----|
|-----------------------------------------------------------------| X2
|--19----19----19----19----19----15----15----15-15/17----17----17~|
|-----------------------------------------------------------------|
|-----------------------------------------------------------------|

Lead guitar/solo:

|-----------15--------------------------15----------------|
|--15-16-17--------17-----17---15-16-17--------17-15------|
|--------------17----14-17-----------------17-------17-14-|  X2
|---------------------------------------------------------|  
|---------------------------------------------------------|
|---------------------------------------------------------|

2nd solo:

|----------------17-----17--17-20-19-17-19-20--22-20-19---|
|--17-18-20----20--20~----20------------------------------|
|----------17~--------------------------------------------|
|---------------------------------------------------------|
|---------------------------------------------------------|
|---------------------------------------------------------|

|--24----24----20-19-19--22-19-20---|
|-----22---22-----------------------|
|-----------------------------------| x2
|-----------------------------------|
|-----------------------------------|
|-----------------------------------|
        
Comments

No comments yet