Gametabs
Home
Tabs
Random

Panic Puppet Zone Act 1

Average rating: No ratings

Composer:

Tabber:

Style:

Instrument:

Created: May 23, 2008 at 12:00 AM

            SONIC 3D: Panic Puppet zone act 1

By: Blaze-thecat

------------------------------------------------------
------------------------------------------------------
------------------------------------------------------
--------9-7-7----------------------9-7-7--------------
------7-------9--7--9------------7-------9--7--9------
---7------------------7-------7------------------7----

----------------------------------------------5-6-7---|
------------------------------------------------------|
------------------------------------------------------|
--------9-7-7-----------9-7-7--------7-8-9------------|
------7-------9-------7-------9-----------------------|
---7---------------7----------------------------------| x2


----5--1---8---4--1--8-8--7--3-5-6-7-6-5-3--
--------------------------------------------
--------------------------------------------
--------------------------------------------
--------------------------------------------
--------------------------------------------

----4-5--1---8---4---1--8-8-----7-----------
--------------------------------------------
--------------------------------------------
--------------------------------------------
--------------------------------------------
--------------------------------------------

----5--1---8---4--1--8-8--7--3-5-6-7-6-5-3--
--------------------------------------------
--------------------------------------------
--------------------------------------------
--------------------------------------------
--------------------------------------------

----4-5--1---8---4--1--8-8----7-6-5-3-------|
--------------------------------------------|
--------------------------------------------|
--------------------------------------------|
--------------------------------------------|
--------------------------------------------| x2

        
Comments

@poeticjedi (May 25, 2008 at 11:52 PM)

----------------------------------------------6-7-8---| ------3-2-2-------------------------------------------| ----2-------4-2-4-------------------------------------|

--2---------------2--------------------8-9-10---------
------------------------------------------------------

try this out now, first time reediting tabs, but this just doesn't sound right

its just poor fingering mostly i think, perhaps its not as large of an impact for electric....im working on acoustic only, the last half should be on the top 2 strings unless ur going for slurs and slides?

not being critical here just exploring the song