Gametabs
Home
Tabs
Random

Main Level

Average rating: No ratings

Composer:

Tabber:

Style:

Instrument:

Created: March 29, 2008 at 12:00 AM

            Title:     Main Level
Game:      Solomon's Key
Composer:  Michiharu Hasutani
Year:      1987
Tabber:    goldsac
Notes:

5 strings; Standard tuning (BEADG)

      - This song has the straightest time ever, 
        so the midi will be a goldmine for
        helping you out 

      - Don't fall behind - it's real hard to get 
        back into this song if you fall off



4/4 Time
    
_______________________________________________________________________________

Precisely   bpm=150


Intro

     Q.     S S Q.     S S    Q.     S S Q.     S S  
G||------------------------|------------------------|
D||------------------------|------------------------|
A||--6------8-6-5------6-5-|--4------5-4-3------4-3-|
E||------------------------|------------------------|
B||------------------------|------------------------|


  Q    Q    Q    Q       S S S S S S S S S S S S S S S S  
----------------------|----------------------------------||
----------------------|----------------------------------||
--2----3----5----6----|----------------------------------||
----------------------|--4-3-4-3-4-3-4-3-4-3-4-3-4-3-4-3-||
----------------------|----------------------------------||


Section A

    E  E  E  E   E  E  E  E     E  E  E  E  E  E  E  E   
|----------------------------|--------5-----------7-----|
|*--------5------------6-----|-----5-----------6--------|
|---3--6-----6---5--8-----5--|--6--------6--8--------8--|
|*---------------------------|--------------------------|
|----------------------------|--------------------------|


  E  E  E  E  E  E  E  E     E  E  E  E  E  E  E  E   
--------5-----------------|--------------------------|
-----5--------------6-----|--------5-----------3-----|
--6--------6--5--8-----5--|--3--6-----3--2--5-----2--|
--------------------------|--------------------------|
--------------------------|--------------------------|


  E  E  E  E  E  E  E  E     E  E  E  E  E  E  E  E   
--------------------------|--------5-----------7-----|
--------5-----------6-----|-----5-----------6--------|
--3--6-----6--5--8-----5--|--6--------6--8--------8--|
--------------------------|--------------------------|
--------------------------|--------------------------|


  E  E  E  E  E  E  E  E     E  E  E  E  E  E  E  E   
--------5-----------------|--------------------------||
-----5--------------6-----|--------5-----------3-----||
--6--------6--5--8-----5--|--3--6-----3--2--5-----2--||
--------------------------|--------------------------||
--------------------------|--------------------------||


Section B

  E  E  E  E  E   E  E  E     E  E   E  E  E  E  E  E   
---------------------------|---------------------------|
---------------------------|---------------------7-----|
--------7------------8-----|-----7--10-----5--8-----5--|
--5--8-----5--7--10-----7--|--8---------8--------------|
---------------------------|---------------------------|


  E   E   E  E  E  E  E  E     E  E  E  E  E   E   E  E   
----------------------------|----------------------------|
---------10-----------9-----|--------7-------------------|
--7--10------7--5--8-----5--|-----7---------------10-----|
----------------------------|--8--------8--7--10------7--|
----------------------------|----------------------------|


  E  E  E  E  E   E  E  E     E  E   E  E  E  E  E  E   
---------------------------|---------------------------|
---------------------------|---------------------7-----|
--------7------------8-----|-----7--10-----5--8-----5--|
--5--8-----5--7--10-----7--|--8---------8--------------|
---------------------------|---------------------------|


  E   E   E  E  E  E  E  E     E  E  E  E  E   E   E  E   
----------------------------|----------------------------||
---------10-----------9-----|--------7-------------------||
--7--10------7--5--8-----5--|-----7---------------10-----||
----------------------------|--8--------8--7--10------7--||
----------------------------|----------------------------||


Section A/C

  E  E  E  E  E  E  E  E     E  E  E  E  E  E  E  E   
--------------------------|--------5-----------7-----|
--------5-----------6-----|-----5-----------6--------|
--3--6-----6--5--8-----5--|--6--------6--8--------8--|
--------------------------|--------------------------|
--------------------------|--------------------------|


  E  E  E  E  E  E  E  E     E  E  E  E  E  E  E  E   
--------5-----------------|--------------------------|
-----5--------------6-----|--------5-----------3-----|
--6--------6--5--8-----5--|--3--6-----3--2--5-----2--|
--------------------------|--------------------------|
--------------------------|--------------------------|


  E  E  E  E  E  E  E  E     E  E  E  E  E  E  E  E   
--------------------------|--------5-----------7-----|
--------5-----------6-----|-----5-----------6--------|
--3--6-----6--5--8-----5--|--6--------6--8--------8--|
--------------------------|--------------------------|
--------------------------|--------------------------|


  E  E  E  E  E  E  E  E     E  E  E  E  E  E  E  E   
--------5-----------------|--------------------------||
-----5--------------6-----|--------5-----------3-----||
--6--------6--5--8-----5--|--3--6-----3--2--5-----2--||
--------------------------|--------------------------||
--------------------------|--------------------------||


Section B/D

  E  E  E  E  E   E  E  E     E  E   E  E  E  E  E  E   
---------------------------|---------------------------|
---------------------------|---------------------7-----|
--------7------------8-----|-----7--10-----5--8-----5--|
--5--8-----5--7--10-----7--|--8---------8--------------|
---------------------------|---------------------------|


  E   E   E  E  E  E  E  E     E  E  E  E  E   E   E  E   
----------------------------|--------5-------------7-----|
---------10-----------9-----|--------7-------------------|
--7--10------7--5--8-----5--|-----7---------------10-----|
----------------------------|--8--------8--7--10------7--|
----------------------------|----------------------------|


  E  E  E  E  E   E  E  E     E  E   E  E  E  E  E  E   
---------------------------|---------------------------|
---------------------------|---------------------7-----|
--------7------------8-----|-----7--10-----5--8-----5--|
--5--8-----5--7--10-----7--|--8---------8--------------|
---------------------------|---------------------------|


  E   E   E  E  E  E  E  E     E  E  E  E  E   E   E  E   
----------------------------|----------------------------||
---------10-----------9-----|--------7-------------------||
--7--10------7--5--8-----5--|-----7---------------10-----||
----------------------------|--8--------8--7--10------7--||
----------------------------|----------------------------||


Section E

  E  E  E  E  E  E  E  E     E  E  E  E  E  E  E  E   
--------------------------|--------4-----------------|
--------7-----------5-----|-----4-----4-----6--9--6--|
-----7-----7-----5-----5--|--5-----------7-----------|
--8-----------7-----------|--------------------------|
--------------------------|--------------------------|


  E  E  E  E  E  E  E  E     E  E  E  E  E  E  E  E   
--------------------------|--------------------------|
--------7-----------5-----|--------3-----------2-----|
-----7-----7-----5-----5--|-----3-----3-----2-----2--|
--8-----------7-----------|--5-----------4-----------|
--------------------------|--------------------------|


  E  E  E  E  E  E  E  E     E  E  E  E  E  E  E  E   
--------------------------|--------4-----------------|
--------7-----------5-----|-----4-----4-----6--9--6--|
-----7-----7-----5-----5--|--5-----------7-----------|
--8-----------7-----------|--------------------------|
--------------------------|--------------------------|


  E  E  E  E  E  E  E  E     E  E  E  E  E  E  E  E     
--------------------------|---------------------------||
--------7-----------5-----|--------3-----------5-----*||
-----7-----7-----5-----5--|-----3-----3-----5-----5---||
--8-----------7-----------|--5-----------7-----------*||
--------------------------|---------------------------||




Duration Legend
---------------
W - whole
H - half
Q - quarter
E - 8th
S - 16th
T - 32nd
X - 64th

        
Comments

No comments yet