Gametabs
Home
Tabs
Random

Snail Town

Average rating: 5.000

1 ratings

Composer:

Tabber:

Style:

Instrument:

Created: August 22, 2011 at 12:00 AM

            Snailiad - Snail Town
Platform: PC
Developer/Publisher: Auriplane
Composed by: Auriplane

Electric Guitar Tab Created By: soundsandstuff channel www.youtube.com/user/soundsandstuff
Completed on: 8/21/11


Standard Tuning

  Part A
E|---------------------------------------|-----------------------------------|-------------------------------------|
B|-------------13--13--13--11--10--11-10L|-10--------------------------------|-10--10--11--10-13-----11--10--11-10L|
G|---------------------------------------|-----10--10--12-10---------12--10--|-------------------------------------|
D|---------------------------------------|-----------------------------------|-------------------------------------|
A|---------------------------------------|-----------------------------------|-------------------------------------|
E|---------------------------------------|-----------------------------------|-------------------------------------|


E|---------------------|------------------------------------13L|-13--------------------------------|
B|-10------------------|-------------13--13--13--11--10--11----|-----10--10--11-10-----------------|
G|---------------------|---------------------------------------|---------------------------12--10--|
D|---------------------|---------------------------------------|-----------------------------------|
A|---------------------|---------------------------------------|-----------------------------------|
E|---------------------|---------------------------------------|-----------------------------------|

								Part B
E|-------------------------------------|---------------------|-----------------------------10--------|
B|-10--10--11--10-13-----11--10--------|---------------------|-------------11--11--10--11------11-13L|
G|-------------------------------10-10L|-10------------------|---------------------------------------|
D|-------------------------------------|---------------------|---------------------------------------|
A|-------------------------------------|---------------------|---------------------------------------|
E|-------------------------------------|---------------------|---------------------------------------|


E|-----------------------------------|-----------10---13---|-15---18---20---22---|
B|-13--------------------------------|-11---13-------------|---------------------|
G|-----10--10--12-9------10--12--10--|---------------------|---------------------|
D|-----------------------------------|---------------------|---------------------|
A|-----------------------------------|---------------------|---------------------|
E|-----------------------------------|---------------------|---------------------|


E|-22-----------------|------------------------|-------------|--------|
B|--------------------|------11---11---10------|-------------|--------|
G|--------------------|-12---------------------|-------------|--------|
D|-------10---12------|------------------------|-12----------|--------|
A|----------------13--|--------------------12--|-------------|--------|
E|--------------------|------------------------|-------------|--------| Repeat from Part A

Notes: 

L - tied note

thank you for playing!

        
Comments

@Link Strife07 (August 23, 2011 at 11:13 PM)

haha nice turtle man!! :D


@tiganior1 (August 24, 2011 at 3:28 AM)

So many secret rooms