Gametabs
Home
Tabs
Random

Main Theme

Average rating: No ratings

Composer:

Tabber:

Style:

Instrument:

Created: April 26, 2015 at 12:00 AM

            Silent Hill Theme (PS1) Bass Arrangement

Akira Yamaoka

8bit
3-26-15



G|--------|-------------|------------------|--------|--------|--------|-------------|
D||-------|-------------|------------------|--------|--------|--------|-------------|
A||-------|-------------|------------------|--------|--------|--------|-------------|
D|-5------|-(5)----5----|-7-----5-----4----|-0------|-(0)----|-5------|-(5)----5----|


G|------------------|--------|--------|-------------|-------------|-------------|
D|------------------|-3------|-(3)---|||------------|-------------|------0------|
A|------------------|--------|-------|||-----0------|-2----2------|-3-----------|
D|-7-----5-----4----|--------|--------|-2-----------|-------------|-------------|


G|-------------|
D|-0----------||
A|------3-----||
D|-------------|

        
Comments

No comments yet