Gametabs
Home
Tabs
Random

Wishful Thinking

Average rating: 4.667

3 ratings

Composer:

Tabber:

Style:

Instrument:

Created: September 18, 2019 at 12:00 AM

            Title: Wishful Thinking
Composer: Akira Yamaoka
Game: Silent Hill 2
Transcriber: youwin

E|---------2--3--0---------------------|-0-----------------2--3--------------|---------2--3--0---------------------|
B|-1-------1-----------------1---1--3--|---------1---1--3------------3-------|-1-------1-----------------1---1--3--|
G|---------------------------0---------|---------0---------------0---4---0---|---------------------------0---------|
D|-----2---------2-------3-------3-----|-----2-------2-----0-----------------|-----2---------2---------------------|
A|-0-----------------------------------|-3-----------------------------------|-0---------------------3-------3-----|
E|-------------------1-----------------|-------------------------------------|-------------------1-----------------|


E|-0-----------------2--3------5-------|-8-------8-------7-------7-------|-------------------------7-------|
B|---------1---1--3------------0-------|---------------------------------|-10------10------10--------------|
G|---------0---------------0-------0---|---------9---------------9-------|---------7---------------7-------|
D|-----2-------2-----0-----------------|-----7-------7-------7-------7---|-----7-------7-------7-------7---|
A|-3-----------------------------------|-0---------------8---------------|-9---------------8---------------|
E|-------------------------------------|---------------------------------|---------------------------------|
        
Comments

@kanshiketsu89 (October 22, 2019 at 5:57 PM)

Nice one! Just posted the Dog Ending myself. Today is a big day for SH2 on this site. :D


@GabrielBocanegra (February 19, 2021 at 6:58 PM)

Nice