Gametabs
Home
Tabs
Random

Theme of Laura

Average rating: 5.000

2 ratings

Composer:

Tabber:

Style:

Instrument:

Created: October 05, 2008 at 12:00 AM

            Theme of Laura
from Silent Hill 2
Music by: Akira Yamaoka
Tabbed by: tylersaintcool
Tuning: Standard (E A D G B e)
Key: E minor
Notes:
I tried to transcribe the chord progressions as accurate as I possibly can
but you can find the perfect rhythm as long as the progression is tabbed out.

Acoustic intro (Riff a):
e|----------------------------------------------------|
B|--0--0-0-0--0-0----0-0--------0-0---------------0---|
G|--0--0-0-0--0-0----0-0--------0-0---------------0---| x 3
D|--2--2-2-2--2-2/4--4-4--4-4/5-5-5-5-5-5h7--7--7\4---|
A|--3--3-3-3--3-3/5--5-5--5-5/7-7-7-7-7-7---7--7-\5---|
E|----------------------------------------------------|

Intro (Riff a) [continued]:
e|-----------------------------------------------|
B|--0-0-0--0-0-0-0-0--0-0--0-0-0--0-0-0-0-0-0-0--|
G|--0-0-0--0-0-0-0-0--0-0--0-0-0--0-0-0-0-0-0-0--|
D|--2-2-2--2-2/4-4-4--4-4--2-2-2--2-2-2/4-4-4-4--|
A|--3-3-3--3-3/5-5-5--5-5--3-3-3--3-3-3/5-5-5-5--|
E|-----------------------------------------------|

Lead fill over Riff A:
e|------------------------------------------------------------|
B|---------------------------------12--12--10--10--12-12--12--|
G|----9--9--11--11--12-12--11--9------------------------------|
D|--9---------------------------------------------------------|
A|------------------------------------------------------------|
E|------------------------------------------------------------|

Electric main riff (w/ Riff A played once):
e|-----------------------------------------------------|
B|-----------------------------------------------------|
G|------7h9--------------------------------------------|
D|-----------9--7/9--5~~-4--5--9--7-----------12--9~~--|
A|--3/7------------------------------7-7/10~~----------|
E|-----------------------------------------------------|

Electric main riff (continued)
e|------------------------------------------------|
B|------------------------------------------------|
G|------7h9--------------------------7--7/9-------|
D|-----------9--7/9--5~~-4--5--9--7----------9~~--|
A|--3/7-------------------------------------------|
E|------------------------------------------------|

Mandolinish fill played over the electric main riff (continued):
(tremolo picking)
e|--12---14---15----19---12---10---12---14--|
B|--//---//---//----//---//---//---//---//--|
G|--//---//---//----//---//---//---//---//--|
D|------------------------------------------|
A|------------------------------------------|
E|------------------------------------------|


Electric main riff 2:
e|------------2--(2)-----------|
B|------------0--(0)-----------|
G|------------0--(0)-----------| x 4
D|------------2--(2)-----------|
A|------------2--(2)--4--3--2--|
E|--0--(0)---------------------|

Electric lead:
e|------------------------------------|
B|------------------------------------|
G|--------12---11-11-12--7-7/9--------|
D|--7/10------------------------9~~~--|
A|------------------------------------|
E|------------------------------------|

e|------------------------------------------12--|
B|----------------------------------------------|
G|--------12---11h12-11---7-7/9--9/12--12-------|
D|--7/10----------------------------------------|
A|----------------------------------------------|
E|----------------------------------------------|

Electric lead 2:           (following guitar fill)
e|------------------------|------------------------|
B|-------------8h10-------|------------------------|
G|--------7h9--------9~~--|--12-12-11-12-12/14--9--|
D|--7/10------------------|------------------------|
A|------------------------|------------------------|
E|------------------------|------------------------|

e|------------------------|------------------------|
B|-------------8h10-------|------------------------|
G|--------7h9--------9~~--|--12-12-11---12--12\9---|
D|--7/10------------------|------------------------|
A|------------------------|------------------------|
E|------------------------|------------------------|

e|------------------------|--------------------------------------12-----|
B|-------------8h10-------|----------------------------12-15--15----15--|
G|--------7h9--------9~~--|--12-12-11-12-12/14---12-14------------------|
D|--7/10------------------|---------------------------------------------|
A|------------------------|---------------------------------------------|
E|------------------------|---------------------------------------------|

Electric lead 3:
e|-------------------------------------------|
B|-------------------------------------------|
G|--12-12-12--11-11-12-12/14----------11--9--| x4
D|----------------------------14---9---------|
A|-------------------------------------------|
E|-------------------------------------------|

Rhythm along with Electric lead 3:
e|----------------------------------------------------|
B|--0-0-0-0---0--0-0-0-0---0--0--0-0-0-0--0--0-0-0-0--|
G|--0-0-0-0---0--0-0-0-0---0--0--0-0-0-0--0--0-0-0-0--| x 8
D|--5-5-5-5h7-5--4-4-4-4h7-4--2--2-2-2-2--0--0-0-0-0--|
A|--7-7-7-7---7--5-5-5-5---5--3--3-3-3-3--2--2-2-2-2--|
E|----------------------------------------------------|

e|-----------|
B|--0--(0)---|
G|--0--(0)---|
D|--2--(2)---|
A|--3--(3)---|
E|-----------|

Riff A
e|----------------------------------------------------|
B|--0--0-0-0--0-0----0-0--------0-0---------------0---|
G|--0--0-0-0--0-0----0-0--------0-0---------------0---| x 3
D|--2--2-2-2--2-2/4--4-4--4-4/5-5-5-5-5-5h7--7--7\4---|
A|--3--3-3-3--3-3/5--5-5--5-5/7-7-7-7-7-7---7--7-\5---|
E|----------------------------------------------------|

Riff A [continued]:
e|-----------------------------------------------|
B|--0-0-0--0-0-0-0-0--0-0--0-0-0--0-0-0-0-0-0-0--|
G|--0-0-0--0-0-0-0-0--0-0--0-0-0--0-0-0-0-0-0-0--|
D|--2-2-2--2-2/4-4-4--4-4--2-2-2--2-2-2/4-4-4-4--|
A|--3-3-3--3-3/5-5-5--5-5--3-3-3--3-3-3/5-5-5-5--|
E|-----------------------------------------------|

Violinish fill over Riff A:
e|--12h14h15---14p12-10--12h14p12----12h14h15---14h15h17--15p14p12---14h15-14---12--|
B|----------------------------------------------------------------------------------|
G|----------------------------------------------------------------------------------|
D|----------------------------------------------------------------------------------|
A|----------------------------------------------------------------------------------|
E|----------------------------------------------------------------------------------|

Electric main riff (w/ Riff A played once):
e|-----------------------------------------------------|
B|-----------------------------------------------------|
G|------7h9--------------------------------------------|
D|-----------9--7/9--5~~-4--5--9--7-----------12--9~~--|
A|--3/7------------------------------7-7/10~~----------|
E|-----------------------------------------------------|

Electric main riff (continued)
e|------------------------------------------------|
B|------------------------------------------------|
G|------7h9--------------------------7--7/9-------|
D|-----------9--7/9--5~~-4--5--9--7----------9~~--|
A|--3/7-------------------------------------------|
E|------------------------------------------------|

Mandolinish fill played over the electric main riff (continued):
(tremolo picking)
e|--12---14---15----19---12---10---12---14--|
B|--//---//---//----//---//---//---//---//--|
G|--//---//---//----//---//---//---//---//--|
D|------------------------------------------|
A|------------------------------------------|
E|------------------------------------------|


Electric main riff 2:
e|------------2--(2)-----------|
B|------------0--(0)-----------|
G|------------0--(0)-----------| x 3
D|------------2--(2)-----------|
A|------------2--(2)--4--3--2--|
E|--0--(0)---------------------|

End:
e|------------2--(2)----|
B|------------0--(0)----|
G|------------0--(0)----|
D|------------2--(2)----|
A|------------2--(2)----|
E|--0--(0)--------------|


        
Comments

@Lonely (December 19, 2008 at 3:16 AM)

I love this song, thank you so much for the tab!


@TehForest (March 31, 2009 at 12:21 AM)

So, in order to play this you need two guitars and two people playing them?


@juliopcrj (November 21, 2009 at 9:26 PM)

me and my friends made a 3-guitar and 1 bass version of this song, take a look: http://www.youtube.com/watch?v=u4KcSmWGHR4


@Biobazard (May 26, 2011 at 11:59 AM)

I whish to play this song since a long time! Thanks you, because now, it's possible because of your tabs :)


@jamesbuchheit (May 04, 2015 at 11:35 AM)

Hey, Thank you so much for share this awesome article with everyone. Vin Diesel Leather Jacket