Gametabs
Home
Tabs
Random

Promise (Reprise)

Average rating: 5.000

5 ratings

Composer:

Tabber:

Style:

Instrument:

Created: August 31, 2009 at 12:00 AM

            Title: Promise (Reprise)
Artist: Akira Yamaoka
Album: Silent Hill II
Tabber: TheDoomOfAllFires (Now VG Maniak)
Tempo = 75

All guitars tuned down 1 step.


Guitar#1


D |--------0-----------0-------|----------------------------|
A |----------------------------|--------3-----------3-------|
F |-----------2-----2-----2----|-----2-----2-----2-----2----|
C |-----2--------3-------------|--4-----------3-------------|
G |--0-------------------------|----------------------------|
D |----------------------------|----------------------------|


--------0-----------0-------|----------------------------|
----------------------------|--------3-----------3-------|
-----------2-----2-----2----|-----2-----2-----2-----2----|
-----2--------3-------------|--4-----------3-------------|
--0-------------------------|----------------------------|
----------------------------|----------------------------|


--------0-----------0-------|----------------------------|
----------------------------|--------3-----------3-------|
-----------2-----2-----2----|-----2-----2-----2-----2----|
-----2--------3-------------|--4-----------3-------------|
--0-------------------------|----------------------------|
----------------------------|----------------------------|


--------0-----------0-------|----------------------------|
----------------------------|--------3-----------3-------|
-----------2-----2-----2----|-----2-----2-----2-----2----|
-----2--------3-------------|--4-----------3-------------|
--0-------------------------|----------------------------|
----------------------------|----------------------------|


--------0-----------0-------|----------------------------|
----------------------------|--------3-----------3-------|
-----------------2----------|-----2-----------2----------|
-----2--------3-------------|--4-----------3-------------|
--0-------------------------|----------------------------|
----------------------------|----------------------------|


--------0-----------0-------|----------------------------|
----------------------------|--------3-----------3-------|
-----------------2----------|-----2-----------2----------|
-----2--------3-------------|--4-----------3-------------|
--0-------------------------|----------------------------|
----------------------------|----------------------------|


--------0-----------0-------|----------------------------|
----------------------------|--------3-----------3-------|
-----------2-----2-----2----|-----2-----2-----2-----2----|
-----2--------3-------------|--4-----------3-------------|
--0-------------------------|----------------------------|
----------------------------|----------------------------|


--------0-----------0-------|----------------------------|
----------------------------|--------3-----------3-------|
-----------2-----2-----2----|-----2-----2-----2-----2----|
-----2--------3-------------|--4-----------3-------------|
--0-------------------------|----------------------------|
----------------------------|----------------------------|


--------0-----------0-------|----------------------------|
----------------------------|--------3-----------3-------|
-----------2-----2-----2----|-----2-----2-----2-----2----|
-----2--------3-------------|--4-----------3-------------|
--0-------------------------|----------------------------|
----------------------------|----------------------------|


--------0-----------0-------|----------------------------||
----------------------------|--------3-----------3-------||
-----------2-----2-----2----|-----2-----2-----2-----2----||
-----2--------3-------------|--4-----------3-------------||
--0-------------------------|----------------------------||
----------------------------|----------------------------||


-0-----0-----0-----0-------------------------------|
-------------------------0-----0-----0-----0-------|
o2-----2-----2-----2-----2-----2-----2-----2-------|
o--------------------------------------------------|
----0-----------0-----0-----0-----------0-----0----|
---------------------------------------------------|


----------------------------------------------------|
--3-----3-----3-----3-----0-----0-----0-----0-------|
--2-----2-----2-----2-----2-----2-----2-----2-------|
----------------------------------------------------|
-----0-----------0-----0-----0-----------0-----0----|
----------------------------------------------------|


--0-----0-----0-----0-------------------------------|
--------------------------0-----0-----0-----0-------|
--2-----2-----2-----2-----2-----2-----2-----2-------|
----------------------------------------------------|
-----0-----------0-----0-----0-----------0-----0----|
----------------------------------------------------|


---------------------------------------------------||
--3-----3-----3-----3-----0-----0-----0-----0------||
--2-----2-----2-----2-----2-----2-----2-----2-----o||
--------------------------------------------------o||
-----0-----------0-----0-----0-----------0-----0---||
---------------------------------------------------||


--------0-----------0-------|----------------------------|
----------------------------|--------3-----------3-------|
-----------2-----2-----2----|-----2-----2-----2-----2----|
-----2--------3-------------|--4-----------3-------------|
--0-------------------------|----------------------------|
----------------------------|----------------------------|


--------0-----------0-------|--------------------0-------|----||
----------------------------|--------3-------------------|----||
-----------2-----2-----2----|-----2-----2-----2----------|----||
-----2--------3-------------|--4-----------3-------------|----||
--0-------------------------|----------------------------|----||
----------------------------|----------------------------|----||


Guitar#2

D |-------|-------|-------|-------|
A |-------|-------|-------|-------|
F |-------|-------|-------|-------|
C |-------|-------|-------|-------|
G |-------|-------|-------|-------|
D |-------|-------|-------|-------|


--------------0-------------------------------------|
-----0h-1--3-----3--1h-0--------------------0h-1----|
--2-----------------------2-------------------------|
----------------------------------------------------|
----------------------------------------------------|
----------------------------------------------------|


----------------------------------------------------|
--3-----1-----0-----------1h-0--------0-------------|
--------------------2-----------2h-0--------2-------|
----------------------------------------------------|
----------------------------------------------------|
----------------------------------------------------|


--------------0-------------------------------------|
-----0h-1--3-----3--1h-0--------------------0h-1----|
--2-----------------------2-------------------------|
----------------------------------------------------|
----------------------------------------------------|
----------------------------------------------------|


----------------------------------------------------|
--3-----1-----0-----------1h-0--------0-------------|
--------------------2-----------2h-0--------2-------|
----------------------------------------------------|
----------------------------------------------------|
----------------------------------------------------|


--------------0-------------------------------------|
-----0h-1--3-----3--1h-0--------------------0h-1----|
--2-----------------------2-------------------------|
----------------------------------------------------|
----------------------------------------------------|
----------------------------------------------------|


----------------------------------------------------|
--3-----1-----0-----------1h-0--------0-------------|
--------------------2-----------2h-0--------2-------|
----------------------------------------------------|
----------------------------------------------------|
----------------------------------------------------|


--------------0-------------------------------------|
-----0h-1--3-----3--1h-0--------------------0h-1----|
--2-----------------------2-------------------------|
----------------------------------------------------|
----------------------------------------------------|
----------------------------------------------------|


----------------------------------------------------|
--3-----1-----0-----------1h-0--------0-------------|
--------------------2-----------2h-0--------2-------|
----------------------------------------------------|
----------------------------------------------------|
----------------------------------------------------|


--------------0-------------------------------------|
-----0h-1--3-----3--1h-0--------------------0h-1----|
--2-----------------------2-------------------------|
----------------------------------------------------|
----------------------------------------------------|
----------------------------------------------------|


----------------------------------------------------|
--3-----1-----0-----------1h-0--------0-------------|
--------------------2-----------2h-0--------2-------|
----------------------------------------------------|
----------------------------------------------------|
----------------------------------------------------|


--------------0-------------------------------------|
-----0h-1--3-----3--1h-0--------------------0h-1----|
--2-----------------------2-------------------------|
----------------------------------------------------|
----------------------------------------------------|
----------------------------------------------------|


----------------------------------------------------|
--3-----1-----0-----------1h-0--------0-------------|
--------------------2-----------2h-0--------2-------|
----------------------------------------------------|
----------------------------------------------------|
----------------------------------------------------|


--------------0-------------------------------------|
-----0h-1--3-----3--1h-0--------------------0h-1----|
--2-----------------------2-------------------------|
----------------------------------------------------|
----------------------------------------------------|
----------------------------------------------------|


----------------------------------------------------|
--3-----1-----0-----------1h-0--------0-------------|
--------------------2-----------2h-0--------2-------|
----------------------------------------------------|
----------------------------------------------------|
----------------------------------------------------|


--------------0-------------------------------------|
-----0h-1--3-----3--1h-0--------------------0h-1----|
--2-----------------------2-------------------------|
----------------------------------------------------|
----------------------------------------------------|
----------------------------------------------------|


----------------------------------------------------||------|-------|-------|
--3-----1-----0-----------1h-0--------0-------------||------|-------|-------|
--------------------2-----------2h-0--------2-------||o-----|-------|-------|
----------------------------------------------------||o-----|-------|-------|
----------------------------------------------------||------|-------|-------|
----------------------------------------------------||------|-------|-------|


------||-------|-------|-------|-------|----||
------||-------|-------|-------|-------|----||
-----o||-------|-------|-------|-------|----||
-----o||-------|-------|-------|-------|----||
------||-------|-------|-------|-------|----||
------||-------|-------|-------|-------|----||


Guitar#3

D |----|----|----|----|----|----|----|----|----|----|----|----|
A |----|----|----|----|----|----|----|----|----|----|----|----|
F |----|----|----|----|----|----|----|----|----|----|----|----|
C |----|----|----|----|----|----|----|----|----|----|----|----|
G |----|----|----|----|----|----|----|----|----|----|----|----|
D |----|----|----|----|----|----|----|----|----|----|----|----|

                                                     
----------------------------------------------------|
----------------------------------------------------|
----------------------------------------------------|
-----------0--2--0----------------------------------|
--0--2--3-----------3--2--0-----------------2--3----|
----------------------------------------------------|

                                                     
----------------------------------------------------|
----------------------------------------------------|
----------------------------------------------------|
--0-------------------------------------------------|
--------3-----2-----0-----3--2--0-----2-----0-------|
-----------------------------------3----------------|

                                                     
----------------------------------------------------|
----------------------------------------------------|
----------------------------------------------------|
-----------0--2--0----------------------------------|
--0--2--3-----------3--2--0-----------------2--3----|
----------------------------------------------------|

                                                     
----------------------------------------------------|
----------------------------------------------------|
----------------------------------------------------|
--0-------------------------------------------------|
--------3-----2-----0-----3--2--0-----2-----0-------|
-----------------------------------3----------------|

                                                     
----------------------------------------------------|
----------------------------------------------------|
----------------------------------------------------|
-----------0--2--0----------------------------------|
--0--2--3-----------3--2--0-----------------2--3----|
----------------------------------------------------|

                                                     
----------------------------------------------------|
----------------------------------------------------|
----------------------------------------------------|
--0-------------------------------------------------|
--------3-----2-----0-----3--2--0-----2-----0-------|
-----------------------------------3----------------|

                                                     
----------------------------------------------------|
----------------------------------------------------|
----------------------------------------------------|
-----------0--2--0----------------------------------|
--0--2--3-----------3--2--0-----------------2--3----|
----------------------------------------------------|

                                                       ^  ^       ^  ^     
----------------------------------------------------||-0--0----|--0--0----|
----------------------------------------------------||-0--0----|--0--0----|
----------------------------------------------------||o2--2----|--2--2----|
--0-------------------------------------------------||o2--3----|--4--3----|
--------3-----2-----0-----3--2--0-----2-----0-------||-0-------|----------|
-----------------------------------3----------------||---------|----------|

  ^  ^       ^  ^
--0--0----|--0--0---||----|----|----|----|----||
--0--0----|--0--0---||----|----|----|----|----||
--2--2----|--2--2--o||----|----|----|----|----||
--2--3----|--4--3--o||----|----|----|----|----||
--0-------|---------||----|----|----|----|----||
----------|---------||----|----|----|----|----||


Guitar#4 (Harmonics)

D |----------------|-----------12---|----------------|----------------|
A |----------------|----------------|----------------|-----------12---|
F |----------------|----------------|----------------|----------------|
C |-----------7----|----------------|-----7----------|--------7-------|
G |----------------|--12------------|--------12------|-----12---------|
D |----------------|----------------|----------------|----------------|


----------------|-----------12---|----------------|----------------|
----------------|----------------|----------------|-----------12---|
----------------|----------------|----------------|----------------|
-----------7----|----------------|-----7----------|--------7-------|
----------------|--12------------|--------12------|-----12---------|
----------------|----------------|----------------|----------------|


----------------|-----------12---|----------------|----------------|
----------------|----------------|----------------|-----------12---|
----------------|----------------|----------------|----------------|
-----------7----|----------------|-----7----------|--------7-------|
----------------|--12------------|--------12------|-----12---------|
----------------|----------------|----------------|----------------|


----------------|-----------12---|----------------|----------------|
----------------|----------------|----------------|-----------12---|
----------------|----------------|----------------|----------------|
-----------7----|----------------|-----7----------|--------7-------|
----------------|--12------------|--------12------|-----12---------|
----------------|----------------|----------------|----------------|


----------------|-----------12---|----------------|----------------||
----------------|----------------|----------------|-----------12---||
----------------|----------------|----------------|----------------||
-----------7----|----------------|-----7----------|--------7-------||
----------------|--12------------|--------12------|-----12---------||
----------------|----------------|----------------|----------------||


---------------|-----------12---|----------------|---------------||
---------------|----------------|----------------|-----------12--||
o--------------|----------------|----------------|--------------o||
o---------7----|----------------|-----7----------|--------7-----o||
---------------|--12------------|--------12------|-----12--------||
---------------|----------------|----------------|---------------||


----------------|-----------12---|----------------|-----------12---|----||
----------------|----------------|----------------|-----------12---|----||
----------------|----------------|----------------|----------------|----||
-----------7----|----------------|-----7----------|--------7-------|----||
----------------|--12------------|--------12------|-----12---------|----||
----------------|----------------|----------------|----------------|----||



Legend
L - tied note
x - dead note
h - hammer on/pull off
b - bend
s - slide
~ - vibrato
g - ghost note
> - accentuated note
t - trill
M - palm mute
. - staccato
P - popping (bass)
S - slapping (bass)
+ - tapping
W - wide vibrato
< - fade in
w - whammy bar
= - tremolo picking
v - brush up
^ - brush down
V - pick stroke up
n - pick stroke down

        
Comments

@Jortalus (March 13, 2014 at 2:31 PM)

Excellent work!