Gametabs
Home
Tabs
Random

Kimi wo Omou Merodii

Average rating: 5.000

3 ratings

Composer:

Tabber:

Style:

Instrument:

Created: June 19, 2013 at 12:00 AM

                   Kimi wo Omou Merodii    「キミを想うメロディー」  -  Shuffle ! シャッフル! (visual novel)

   Music: Hitomi,Minoru Maruo,Acchorike >> piano arr. : Josh >> guitar arr. : Diralark


Nylon Guitar (Std tuning), Tempo 112, let ring, capo 5

      (Chorus 1)                                                                      
  T=112           ^            ^    >                  ^            ^               
      E        E  Q    Q       Q    Q    Q       E  E  Q.     E     Q    Q    Q     
E||---------------0---------|------------2----|------------------|-----------------|
B||---0-----------1---------|-----------------|--------3---------|-----------------|
G||*-----------0-------0----|--2--------------|--2-----0---------|--0---------0----|
D||*------------------------|--0----0---------|-----0---------4--|-----------------|
A||---3---------------------|-----------------|------------------|-------2---------|
E||-------------------------|-----------------|--3---------------|--0--------------|

                                        rall.........................102
        ^            ^    >                                  ^                 
  E  E  Q    Q       Q    Q    E  E     E  E  E  E  E  E     Q    Q    Q       
--------0---------|------------2-----|--------0-----2-----|------------0-----||
--0-----1---------|---------------3--|-----0-----0--------|--0---------------||
-----0-------0----|--2----2----------|-----------------2--|-------1---------*||
------------------|--0---------------|--2-----------------|-----------------*||
--3---------------|------------------|--------------------|------------------||
------------------|------------------|--------------------|--0---------------||

T=110
   (Couplet 1)               II                                                     
   ^                         ^                                      v               
   Q         Q     E   E     Q    Q    E   E     Q    Q    E  E     Q    Q    Q     
------------------(0)-----|-------------------|------------------|-----------------|
---0----------------------|-------------------|------------0-----|-----------------|
*------------0-----2p--0--|-------2-----------|------------------|------------0----|
*-------------------------|--4---------2p--0--|-------0----------|------------2----|
---3----------------------|--5----------------|--2------------0--|--2----2---------|
--------------------------|-------------------|--3---------------|--0--------------|

                    1.____________
                      II                rall.........................104                                     
  v                   v                 ^                                    
  Q    Q    E   E     Q    Q    Q       Q    Q    E  E     Q    Q    Q       
-------------------|------------2----|------------0-----|------------0-----||
--0----------------|------------3----|--0----0----------|--0---------------||
-------0----2p--0--|-------2---------|---------------2--|-------1---------*||
-------------------|--4--------------|--2---------------|--2---------2----*||
--3----------------|--5--------------|------------------|------------------||
-------------------|-----------------|------------------|------------------||


2.____________                                             (Chorus 2)   
  II                  rall.........................100  T=110                 
  ^                                                        SEGNO        ^           
  Q    Q    E   E     Q    Q    Q       Q    Q    Q         E        E  E  E  Q     
-------------------|------------0----|-----------------||---------------0-----0----|
-------------------|-------0---------|------------0----||---0-----------1--3-------|
-------2-----------|-----------------|-------1---------||*-----------0--------0----|
--4---------2p--0--|--2--------------|--2--------------||*-------------------------|
--5----------------|-----------------|-----------------||---3----------------------|
-------------------|-----------------|-----------------||--------------------------|

                                                                            1.____________
  ^    >            ^                    ^         ^             ^             ^    >           
  Q    Q    Q       E  E  E   E  Q       Q    Q    Q       E  E  E  E  Q       Q    Q    E  E   
------------2----|--------------------|-----------------|--------0-----0----|------------2-----|
-----------------|---------------0----|-----------------|--0-----1--3-------|---------------3--|
--2--------------|--2-----0h--2-------|--0---------0----|-----0--------0----|--2----2----------|
--0----0---------|-----0--------------|------------2----|-------------------|--0---------------|
-----------------|--------------------|-------2---------|--3----------------|------------------|
-----------------|--3-----------------|--0--------------|-------------------|------------------|


  rall.........................104       2._______________     rall.............
                       ^                   ^                        ^          
  E  E  E  E  E  E     Q    Q    Q         Q    Q    E  E     E  E  Q    Q     
--------0-----2-----|------------0-----||------------------|-------------0----|
-----0-----0--------|--0---------------||------------------|--------0---------|
-----------------2--|-------1---------*||--2---------0-----|-----2--2---------|
--2-----------------|-----------------*||--0----0-------4--|--2---------------|
--------------------|------------------||------------------|------------------|
--------------------|--0---------------||------------------|------------------|


                    (Couplet 2)
 ............100   T=108                          II                                   
                      ^                         ^                                    
  Q    Q    Q         Q         Q     E   E     Q    Q    E   E     Q    Q    E  E   
------------0----||------------------(0)-----|-------------------|------------------|
-----------------||---0----------------------|-------------------|------------0-----|
-------1---------||*------------0-----2p--0--|-------2-----------|------------------|
-----------------||*-------------------------|--4---------2p--0--|-------0----------|
-----------------||---3----------------------|--5----------------|--2------------0--|
--0--------------||--------------------------|-------------------|--3---------------|


                                      1._____________    rall.........................104
                                        II                                                     
  v                 v                   v                 ^                                    
  Q    Q    Q       Q    Q    E   E     Q    Q    Q       Q    Q    E  E     Q    Q    Q       
-----------------|-------------------|------------2----|------------0-----|------------0-----||
-----------------|--0----------------|------------3----|--0----0----------|--0---------------||
------------0----|-------0----2p--0--|-------2---------|---------------2--|-------1---------*||
------------2----|-------------------|--4--------------|--2---------------|--2---------2----*||
--2--------------|--3----------------|--5--------------|------------------|------------------||
--0----0---------|-------------------|-----------------|------------------|------------------||

2._________  rall.......................100
  ^                                     v                              
  Q    Q    E   E     Q    Q    Q       H.              H.             
-------------------|------------0----|---------------|---------------||
-------------------|-------0---------|---------------|---------------||
-------2-----------|-----------------|---------------|---------------||
--4---------2p--0--|--2--------------|--2------------|--L------------||
--5----------------|-----------------|---------------|---------------||
-------------------|-----------------|--4------------|--L------------||

Legend
---------------
H - half
Q - quarter
E - 8th
. - note dotted
|-n-|  - n-tuplets
L - tied note
(n) - ghost note
h - hammer on
p - pull off
^ - brush up
v - brush down

ost :  http://www.youtube.com/watch?v=XQWxOXk9GDg  (u can synchro using capo 5)

piano score by josh :  http://josh.agarrado.net/music/anime/

        
Comments

No comments yet