Gametabs
Home
Tabs
Random

Welcome to Storm

Average rating: 5.000

1 ratings

Composer:

Tabber:

Style:

Instrument:

Created: August 25, 2010 at 12:00 AM

            Title: Welcome to Storm (intro)
Game: Shining in the Darkness
Composer: Masahiko Yoshimura
Tabber: Wren 



E|----------------------|----------------|----------------------|----------------|
B|-0---1---3----1---0---|-1--------------|-----0---1----0-------|-0----3---------|
G|----------------------|----------------|-2----------------2---|----------------|
D|----------------------|------2---------|-0--------------------|----------------|
A|----------------------|-0---------0----|----------------------|------2----2----|
E|-3--------------------|----------------|-2--------------------|-3--------------|


E|-0---2---3----2---0---|-2--------------|-------------------------|----------------|
B|----------------------|------3---------|-1-----------------------|----------------|
G|----------------------|----------------|-----------------0-------|------2---------|
D|----------------------|------0---------|-----2---2---4-------2---|-4--------------|
A|-3--------------------|-2---------2----|-0-----------------------|-5--------------|
E|----------------------|----------------|-------------------------|------2----2----|


E|----------------------|----------------|----------------------|----------------|
B|-0---1---3----1---0---|-1--------------|-----0---1----0-------|-0----3---------|
G|----------------------|----------------|-2----------------2---|----------------|
D|----------------------|------2---------|-0--------------------|----------------|
A|----------------------|-0---------0----|----------------------|------2----2----|
E|-3--------------------|----------------|-2--------------------|-3--------------|


E|-0---2---3----2---0---|-2--------------|-------------------------|------------|
B|----------------------|------3---------|-1-----------------------|------------|
G|----------------------|----------------|-------------------------|-2----0-----|
D|----------------------|------0---------|---------0---2---4---0---|------------|
A|-3--------------------|-2---------2----|-0---3-----------5-------|-0----2-----|
E|----------------------|----------------|-------------------------|------------|



        
Comments

@diralark (September 12, 2010 at 10:22 AM)

I like it


@Chevy (January 30, 2011 at 2:02 AM)

Good, good