Gametabs
Home
Tabs
Random

Headquarters

Average rating: No ratings

Composer:

Tabber:

Style:

Instrument:

Created: March 13, 2013 at 12:00 AM

            Standard tuning for 5-string (BEADG).  You can, of course,
play it an octave up on a 4-string, but this is the literal transcription.
Tempo matches a typical marching tune: hup-2-3-4!


             --3--                                            --3--                                         
             | | |                                            | | |
             S S S  E    E    E    E           E    E    E    S S S
|------------------|--------------------|     |---------------------|
|------------------|--------------------|     |---------------------|
|------------------|--------------------| x3  |---------------------|
|------------5-5-5-|--------------------|     |---------------5-5-5-|
|------------------|3----3----3----3----|     |3----3----3----------|

                                                                    
                                                                      --3--
                                                                      | | |
 E    E    E    E           E    E    E    E           E    E    E    S S S
|--------------------|     |--------------------|     |---------------------|
|--------------------|     |--------------------|     |---------------------|
|--------------------| x4  |--------------------| x3  |---------------------|
|--------------------|     |3----3----3----3----|     |3----3----3----5-5-5-|
|3----3----3----3----|     |--------------------|     |---------------------|


 E    E    E    E           Q    H.            Q    H. 
|--------------------|     |------------------|------------------|
|--------------------|     |------------------|------------------|
|--------------------| x2  |------------------|------------------|
|--------------------|     |3----3------------|5----5------------| 
|3----3----3----3----|     |------------------|------------------|


 E
|--------------------|----------------|----------------|
|--------------------|----------------|----------------|
|--------------------|----------------|----------------|
|--------------------|----------------|----------------|
|3-------------------|----------------|----------------|


Repeat from beginning. 
        
Comments

No comments yet