Gametabs
Home
Tabs
Random

Mist

Average rating: 3.500

2 ratings

Composer:

Tabber:

Style:

Instrument:

Created: December 02, 2012 at 12:00 AM

            e|-------------------------------------------------------------|
B|-------------------------------------------------------------|
G|-------------------------------------------------------------|
D|-------------------------------------------------------------|
A|9-10x-99-10--xx99-10x-99-10--xx99-10x-99-10--xx99-10x-99-10--|
E|7-8-x-77-8---xx77-8-x-77-8---xx77-8-x-77-8---xx77-8-x-77-8---|x2

e|-----------------------------|
B|----12~--------7b+7b+7+~-----|
G|----14brbrFB~----------------|
D|-----------------------------|
A|-----------------------------|
E|-----------------------------|

e|-----------------------------------------------------------------|
B|----15----14-----------------------------------------------------|
G|-14----14----14-14--14/16-16-11-/14-12~---11--11----------11-----|
D|-------------------------------------------------14p12-14--------|
A|-------------------------------------------------------------14--|
E|-----------------------------------------------------------------|

e|------------------------|
B|------------------------|
G|------------------------|
D|----12-11-----------9~--|
A|-14--------12\9-/12-----|
E|------------------------|

e|----------14---------------------------------------------------------------|
B|----15---------15----14--14h15p14------------------------------------------|
G|-16----16---16----16--------------14-12~--11--11----------11--------11-----|
D|-------------------------------------------------14p12-14--------14--------|
A|-------------------------------------------------------------14--------12--|
E|---------------------------------------------------------------------------|

e|-------------------------------------|
B|-------------------------------------|
G|-------------11-/14-/16~----16-/18~--|
D|-9-11-/12-14-------------------------|
A|-------------------------------------|
E|-------------------------------------|

e|------------------------------------------------|
B|-15--17b--17~---17-17-17-15-14-15-14h15p14------|
G|-------------------------------------------16~--|
D|------------------------------------------------|
A|------------------------------------------------|
E|------------------------------------------------|

e|-----------------------------------------|
B|-15--17b--17~---17-17-17-15-14-17b-17b~--|
G|-----------------------------------------|
D|-----------------------------------------|
A|-----------------------------------------|
E|-----------------------------------------|

e|-----14--/17----------------------------------------------------|
B|-15-----------15-15--14-15-14h15p14--------14--15~--15-17b-17~--|
G|------------------------------------16~-16----------------------|
D|----------------------------------------------------------------|
A|----------------------------------------------------------------|
E|----------------------------------------------------------------|

| /  slide up
| \  slide down
| h  hammer-on
| p  pull-off
| ~  vibrato
| +  harmonic
| x  Mute note
        
Comments

No comments yet