Gametabs
Home
Tabs
Random

Master of Tartarus

Average rating: 1.500

2 ratings

Composer:

Tabber:

Style:

Instrument:

Created: February 09, 2021 at 12:00 AM

            INTRO

D-4-4-4-4-4-4-4-4-4-4-4-4-(4)-4-(4)-4-4-4-4-4-4-4-4-4-4-4-4-4-(4)---(4)
A-4-4-4-4-4-4-4-4-4-4-4-4-(4)-4-(4)-4-4-4-4-4-4-4-4-4-4-4-4-4-(4)---(4)
D-4-4-4-4-4-4-4-4-4-4-4-4-(4)-4-(4)-4-4-4-4-4-4-4-4-4-4-4-4-4-(4)---(4)

Palm mute all notes in this intro except notes in parentheses. The dynamics can
be a bit tricky to learn but they aren't too difficult

VERSE

D-2-4-X-4-5-X-5-7-2-4-------2-4-X-4-5-X-5-7-2-4-X-4-5~
A-2-4-X-4-5-X-5-7-2-4-------2-4-X-4-5-X-5-7-2-4-X-4-5~
D-2-4-X-4-5-X-5-7-2-4-------2-4-X-4-5-X-5-7-2-4-X-4-5~

Verse loops six times. After the song has looped once or more, the verse loops 11 times

CHORUS

D-4~---------7~---------5~---------4~
A-4~---------7~---------5~---------4~
D-4~---------7~---------5~---------4~

Chorus loops 4 times during every song loop
        
Comments

No comments yet