Gametabs
Home
Tabs
Random

World Map ~ Last Area

Average rating: No ratings

Composer:

Tabber:

Style:

Instrument:

Created: February 28, 2012 at 12:00 AM

            World Map -Last Area-
Game: Shin Megami Tensei III: Nocturne
Composer: Shoji Meguro
Tabbed By: Hitoshura89
Tuning: E Standard

~=Vibrato
H=Hammer On
P=Pull Off
/=slide up
\=slide down

Intro/ Main Verse Repeat X2

E|-----------------------------------------------------------------------------------------------------|
B|--12~---10~---8H10P8-7-8------7-8---10/12~--10~--15-7---H8P7------7-8---10/12~---10~---8H10P8-7-8----|
G|-------------------------9--9-----9--------------------------9--9-----9---------------------------9--|
D|-----------------------------------------------------------------------------------------------------|
A|-----------------------------------------------------------------------------------------------------|
E|-----------------------------------------------------------------------------------------------------|


E|------------------------------12--/14-----------|
B|----7-8---10---10-10--12--15----------12---12\--|
G|--9-----9---------------------------------------|
D|------------------------------------------------|
A|------------------------------------------------|
E|------------------------------------------------|


Then The

Ending


E|------------------|
B|------------------|
G|------------------| X2
D|---------------9--|
A|--7-7-7-7-7-7--7--|
E|------------------|
    * * * * * *

E|------------------|
B|------------------|
G|------------------| X2
D|---------------7--|
A|--5-5-5-5-5-5--5--|
E|------------------|
    * * * * * *

E|------------------|
B|------------------|
G|------------------| X2
D|---------------5--|
A|--3-3-3-3-3-3--3--|
E|------------------|
    * * * * * *


E|--------------|
B|--------------|
G|--------------|
D|--2--4--5--4--| X1
A|--0--2--3--2--|
E|--------------|

        
Comments

No comments yet