Gametabs
Home
Tabs
Random

Svadhisthana

Average rating: 5.000

1 ratings

Composer:

Tabber:

Style:

Instrument:

Created: March 21, 2013 at 12:00 AM

            Svadhisthana
Digital Devil Saga
Tabbed by Aleph for guitar
3/18/2013

0:32, 1:36
E|------------------------------------------------------------------------------------------|
B|--7-------------------------------------------7-------------------------------------------|
G|-----7--9-------7~-----6h7p6---------------------7--9-------7~-----6h7p6------------------|
D|-----------9------------------7-/9-9-------------------9------------------7-/9-9----------|
A|--------------------------------------9~--------------------------------------------------|
E|------------------------------------------------------------------------------------------|

1:52 - Play staccato
E|------------------------------------------------------------------------------------------|
B|--7-----------------------------------------7---------------------------------------------|
G|-----7--9-------7~-----6-7-6-------------------7--9-------7~-----6-7-6--------------------|
D|-----------9------------------7--9-------------------9------------------7--9--------------|
A|------------------------------------9~----------------------------------------------------|
E|------------------------------------------------------------------------------------------|


h - hammer-on
p - pull-off
        
Comments

@Coyote-Kiss (February 16, 2016 at 8:01 PM)

simple, but pretty fun. thanks!