Gametabs
Home
Tabs
Random

Kimi wa Wasurerareru no

Average rating: 5.000

6 ratings

Composer:

Tabber:

Style:

Instrument:

Created: May 14, 2016 at 12:00 AM

                                               Kimiwa wasurerareruno (君は忘れられるの)
                             ~ anime "Shigatuwa kimino uso / 四月は君の嘘 " ~


Music by Masaru Yokoyama (横山 克)
arranged by to*morning

Standard tuning 

Moderato (Q = 92)

                <                                                      <         
     Q.     S S E  E  E  E     W                   Q.     S S E  E  E  E     E  Q.     H         
E||--3------0---------0--1--|-------------------|--3------0---------0-----|---------------------|
B||--1--------3-1--3-----3--|-------------------|--1--------3-1--3-----3--|---------------------|
G||--0-------------------2--|-------------------|--0-------------------2--|-----0---------------|
D||-------------------------|-------------------|----------------------3--|---------------------|
A||--3----------0--------1--|-------------------|--3----------0--------1--|---------------------|
E||-------------------------|-------------------|-------------------------|---------------------|


                                                                              <                 
  Q.     S S E  E  E  E     E  Q.     Q    Q       E  E  E  E  E  E  E  E     W                 
--3------0------------8--|----------------------|--------5-----0-----3--1--|-------------------|
--1--------3-------8--6--|-----------------3----|--5--------------------3--|-------------------|
--0----------5--7-----7--|-----0------3---------|-----2-----2-----2-----2--|-------------------|
-------------------------|----------------------|--------------------------|-------------------|
--3----------0-----------|----------------------|--0-----------3--------1--|-------------------|
----------------------6--|------------3---------|--------------------------|-------------------|


   <                    >     >     >     >        >     >     >     >      
   W                    E  E  E  E  E  E  E  E     E  E  E  E  E  E  E  E   
---------------------||--8-----------------------|--0-----------------------|
---6-----------------||--------6-----8-----6-----|--------6-----8-----6-----|
---3-----------------||-----5-----5-----5-----5--|-----5-----5-----5-----5--|
--(3)----------------||--------------------------|--------------0-----------|
---------------------||--0-----------------------|--------------------------|
---3-----------------||--------------6-----------|--8-----------------------|


  >     >     >     >        >     >     >      >         >     >     >     >      
  E  E  E  E  E  E  E  E     E  E  E  E  E  E   E   E     E  E  E  E  E  E  E  E   
--8-----------------------|--0-----------------(5)-----|--8-----------------------|
--------6-----8-----6-----|--------6-----5------6------|--------6-----8-----6-----|
-----5-----5-----5-----5--|-----5-----5-----0-------0--|-----5-----5-----5-----5--|
--------------------------|--------------0-------------|--------------------------|
--0-----------------------|----------------------------|--0-----------------------|
--------------6-----------|--8-------------------------|--------------6-----------|


  >     >     >     >        >     >     >              >     >     >     >      
  E  E  E  E  E  E  E  E     E  E  E  E  E  E  E  E     E  E  E  E  E  E  E  E   
--0-----------------5-----|--------------------------|--------------------3-----|
--------6-----8-----------|--6-----5-----------3-----|--6-----5-----6-----------|
-----5-----5-----5-----5--|--------------5-----------|-----5-----5-----5-----5--|
--------------0-----------|-----3-----3-----3-----3--|--------------------------|
--------------------------|--0-----------------------|--3-----------------------|
--8-----------------------|--------------6-----------|--------------------------|


                                                              <                 
  E  E  E  E  E  E    E      E       H          H             W                 
--------8-------------8[20]---------|------------------------|---------------------||
--6--------6-----8[20]-------8[20]--|-----------8[20]--------|---------------------||
-----5------------------------------|------------------------|---------------------||
------------------------------------|------------------------|---------------------||
------------------------------------|------------------------|---------------------||
--6---------------------------------|------------------------|---------------------||


  Q.     S S E  E  E  E     E  E  Q    E  E  E  E     Q.     S S E  E  E  E   
--3------0---------0--1--|----------------------1--|--3------0---------0-----|
--1--------3-1--3--------|-----3----------3--3-----|--1--------3-1--3-----6--|
--0-------------------2--|-------------2-----2-----|--0-------------------5--|
----------------------3--|-------------------------|----------------------5--|
--3----------0--------1--|-------------------------|--3----------0-----------|
-------------------------|-------------------------|----------------------6--|


                                                                              
  E  E  E  E  E  E  E    E     Q.     S S E  E  E  E     E  S S E  E  E  E  Q     
-----------------6--6-------|--3------0---------0--1--|--------------------------|
-----------6--6-------------|--1--------3-1--3--------|-----3-1----------1--3----|
-----7--7---------------<7>-|--0----------------------|---------3-----3----------|
----------------------------|----------------------3--|------------3-------------|
----------------------------|-------------0--------1--|--------------------------|
----------------------------|--0----------------------|--------------------------|


                    >                                                                        
  E  E  E  E  E  E  E  E     E  E  Q     H            W                    W                 
--------5-----0-----3-----|-----6-------10--------|--13----------------|--12----------------|
--5--------------------6--|-----------------------|--11----------------|--11----------------|
-----2-----2-----2-----5--|-------------10--------|--------------------|--10----------------|
-----------------------5--|-----------------------|---8----------------|---8----------------|
--0-----------3-----------|-----------------------|--------------------|--------------------|
-----------------------6--|-----------------------|--------------------|--------------------|


   <                  
   W                  
--10----------------||
--------------------||
--------------------||
--------------------||
--------------------||
--------------------||
        
Comments

@BigHeadClan (May 16, 2016 at 5:10 PM)

Well time to restring my classic guitar when I get home. Looking forward to playing this, loved the music from this series.