Gametabs
Home
Tabs
Random

Welcome to Hell

Average rating: No ratings

Composer:

Tabber:

Style:

Instrument:

Created: July 21, 2011 at 12:00 AM

            Artist: Akira Yamaoka
Album: Shadows of the Damned
Song: Welcome To Hell (Shadows of the Damned Intro)
Tabbed by: A Dead Fly

Guitar with standard tuning

                     Hit Guitar                Hit Guitar
e||--(3)-------(3)-------(3)---(3)-------(3)-------(3)---(3)-------(3)--|
B||----(3)-----------------------(3)-----------------------(3)-------(3)|
G||------------------4-------------(4)---------4-------------(4)--------|
D||-5-------6--------x--------5-------6--------x--------6-------5-------|
A||------------------x-------------------------x------------------------|
E||------------------x-------------------------x------------------------|

*Bar 2 is half the length of all other bars

                       Hit Guitar
|----(3)------(3)-----(3)----|
|------(3)--------(3)-----(3)|
|----------------------x-----|
|-6-------5------------x-----|
|----------------------x-----|
|----------------------x-----|

|--(3)-----(3)-----(3)-----(3)-----(3)-----(3)-----(3)-----(3)------|
|----(4)-----(4)-----(4)-----(4)-----(4)-----(4)-----(4)-----(4)----|
|------(5)-----(5)-----(5)-----(5)--------3------------(5)-----(5)--|
|---------0-------3-------0-------5---------------6-------5---------|
|-3-----------------------------------------------------------------|
|-------------------------------------------------------------------|

      v   ^
|----(3)--3--------|
|----(4)--3--------|
|-4--(5)--0--------|
|---------0--------|
|---------2--------|
|---------3--------|

                      Hit Guitar                      Hit Guitar      
|--------------------------------------------------------------------------------|
|---(8)----------(8)------(8)----(8)--------(8)-----------(8)---(8)----------(8)-|
|-----(10)------------x------------(10)--------(10)---x-----------(10)-----------|
|--------(11)---------x---------------(11)--------(11)x--------------(11)--------|
|--11--------10-------8--------------------8----------10-------8-----------------|
|---------------------x--------11---------------------x------------------11------|

                                  ^   v   ^    v   ^    
|----------------------(3)---(3)---------(4)------(4)-|
|----(8)---(8)---(8)--------------x---x---x----x---x--|
|--------------------------------(5)-(5)--5---(5)--5--|
|---------------------------------6---6---6----6---6--|
|--------------------------5------x---x---x----x---x--|
|--9-----8-----6-----4-----3--------------------------|

          Hit Guitar                                            
                        ^   ^   v   ^   ^   ^   ^   v              
|--------------------3-(4)-(4)-(4)-(4)-(4)-(4)-(4)-(4)---------|
|-----------------------x---x---x---x---x---x---x---x----------|
|-----------------------5---5---5---5---5---5---5---5----------|
|---------x-------------6---6---6---6---6---6---6---6----------|
|---------x-------------x---x---x---x---x---x---x---x----------|
|----x--x-x----------------------------------------------------|

            ^   v    ^   v             
|-------------------------------------|
|----------(6)-(5)--(6)-(5)-----------|
|--(6)--6---6---5----6---5------------|
|------(6)--6---5----6---5------------|
|-----------8---7----8---7------------|
|-------------------------------------|

    ^   ^   ^   v   ^   ^   ^   v   ^   ^   ^   v              
|--------------------------------------------------------------|
|--(6)-(6)-(6)-(6)-(6)-(6)-(6)-(6)-(6)-(6)-(6)-(6)-------------|
|---6---6---6---6---6---6---6---6---6---6---6---6--------------|
|---6---6---6---6---6---6---6---6---6---6---6---6--------------|
|---8---8---8---8---8---8---8---8---8---8---8---8--------------|
|--------------------------------------------------------------|

                                          Hit Guitar      
    ^   ^   ^    ^   ^   ^      ^   ^                     
|--------------------------------------------------------|
|--(5)-(5)-(5)--(5)-(5)-(5)----(5)-(5)-------------------|
|---5---5---5----5---5---5------5---5-----x--------------|
|---5---5---5----5---5---5------5---5-----x--------------|
|---7---7---7----7---7---7------7---7-----x--------------|
|-----------------------------------------x--------------|

    ^   ^   ^   v   ^   ^   ^   v  ^ v     ^   ^   ^   v             
|------------------------------------------------------------------|
|--(3)-(3)-(3)-(3)-(3)-(3)-(3)-(3)--------(3)-(3)-(3)-(3)-3--3-3-3-|
|---5---5---5---5---5---5---5---5----------5---5---5---5--5--5-5-5-|
|---6---6---6---6---6---6---6---6--5-5-----6---6---6---6--6--6-6-6-|
|---5---5---5---5---5---5---5---5--5-5-----5---5---5---5-----------|
|----------------------------------3-3-----------------------------|

             Hit Guitar                                       
                         ^   ^   ^   v   ^   ^   ^   v             
|-----------------------(4)-(4)-(4)-(4)-(4)-(4)-(4)-(4)------|
|----3-3-----------------x---x---x---x---x---x---x---x-------|
|----5-5-----x-----------5---5---5---5---5---5---5---5-------|
|----6-6--x--x-----------6---6---6---6---6---6---6---6-------|
|------------x-----------x---x---x---x---x---x---x---x-------|
|------------x-----------------------------------------------|

   Hit Guitar                                                     
               ^   ^   ^     ^   ^   ^      ^   ^   ^            
|-------------(4)-(4)-(4)---(4)-(4)-(4)----(4)-(4)-(4)-----------|
|--------------x---x---x-----x---x---x------x---x---x------------|
|--------------5---5---5-----5---5---5------5---5---5------------|
|--x-----------6---6---6-----6---6---6------6---6---6-------x----|
|--x--------------------------------------------------------x----|
|--x--------------------------------------------------------x----|

   ^ ^ ^   ^ ^ ^   ^ ^ ^ v ^ ^ ^ v ^ ^ ^ v ^ v ^ v     v ^         ^ ^ ^ v ^ ^ ^ v ^ ^    
|---------------------------------------------------|--------------3-3-3-3-3-3-3-3-3-3----|
|--6-6-6---6-6-9---9-9-9-9-9-9-9-9-9-9-6-9-6-9-6-6--|----5---------5-5-5-5-5-5-5-5-5-5----|
|--8-8-8---8-8-8---8-8-8-8-8-8-8-8-8-8-8-8-8-8-8-8--|----6---------6-6-6-6-6-6-6-6-6-6----|
|--6-6-6---6-6-6---6-6-6-6-6-6-6-6-6-6-6-6-6-6-6-6--|--5-5---------5-5-5-5-5-5-5-5-5-5----|
|---------------------------------------------------|--3-3---------3-3-3-3-3-3-3-3-3-3----|
|---------------------------------------------------|-------------------------------------|

        Hit Guitar                                
                   ^ ^ ^   ^ ^ ^    ^ ^ ^         
|-----3------------3-3-3---3-3-3----3-3-3--------|
|--5---------------5-5-5---5-5-5----5-5-5--------|
|-------x----------6-6-6---6-6-6----6-6-6--------|
|-------x----------------------------------------|
|-------x----------------------------------------|
|-------x----------------------------------------|

                               Hit Guitar                                         
   ^ ^ ^   ^ ^ ^    ^ ^ ^ v ^             ^ v    ^ v      ^ v ^ v                   
|--4-4-4---4-4-4----3-3-3-3-3--------------------------|-------------------------|
|--4-4-4---4-4-4----4-4-4-4-4-------------6-6----5-5---|--5-5-5-5----------------|
|--5-5-5---5-5-5----3-3-3-3-3--x----------6-6----5-5---|--5-5-5-5----------------|
|--6-6-6---6-6-6----5-5-5-5-5--x----------6-6----5-5---|--5-5-5-5----------------|
|------------------------------x----------4-4----3-3---|--3-3-3-3----------------|
|------------------------------x-----------------------|-------------------------|

Email questions to [email protected]

Please give me credit if you use this tab for a video

        
Comments

No comments yet