Gametabs
Home
Tabs
Random

Title Screen

Average rating: 5.000

1 ratings

Composer:

Tabber:

Style:

Instrument:

Created: September 02, 2009 at 12:00 AM

            Shadowgate - Title screen
Platform: Nintendo Entertainment System / Famicom
(Jap: 1989 / US : 1989 / UE : 1991)
Developer: ICOM Simulations
Publisher: Kemco
Composed by : Unknown
Tabbed by : Schin    


Guitar 1

e---------6--5------6---8----5-3-5--
B--3--4-----------------------------
G-----------------------------------
D-----------------------------------
A-----------------------------------
E----------------------------------- Repeat one time

   
e--10--11--8--6----------10--11----8--6-------------
B------------------8---------------------8--6-------
G------------------------------------------------7--
D---------------------------------------------------
A---------------------------------------------------
E--------------------------------------------------- Repeat one time

    
e--12--13--10--8-----------12--13----10--8--------------
B-------------------10----------------------10--8-------
G----------------------------------------------------9--
D-------------------------------------------------------
A-------------------------------------------------------
E------------------------------------------------------- Repeat one time

    
e----------8--7------8---10----7-5-7--
B-----6-------------------------------
G--8----------------------------------
D-------------------------------------
A-------------------------------------
E------------------------------------- Repeat one time


Guitar 2

e-----------------
B-----------------
G-----------------
D----------5------
A--5---6-------3--
E----------------- Repeat (x22)


e-----------------
B-----------------
G-----------------
D----------7------
A--7---8-------5--
E----------------- Repeat (x22)



        
Comments

@BacardiBreezer (January 28, 2011 at 1:23 AM)

Nice


@Schin (March 24, 2011 at 5:15 PM)

Thank you.