Gametabs
Home
Tabs
Random

Hero of Stormhaven

Average rating: 5.000

1 ratings

Composer:

Tabber:

Style:

Instrument:

Created: November 01, 2009 at 12:00 AM

            Shadowgate - Hero of Stormhaven
Platform: Nintendo Entertainment System / Famicom
(Jap: 1989 / US : 1989 / UE : 1991)
Developer: ICOM Simulations
Publisher: Kemco
Composed by : Unknown
Tabbed by : Schin


Guitar 1
    
e|-------------12-----------10----12--10---------8---7-------7--
B|--10---------------------------------------------------10-----
G|--------------------------------------------------------------
D|--------------------------------------------------------------
A|--------------------------------------------------------------
E|--------------------------------------------------------------

                
e|------10-----8----------8-------------------------------------
B|-----------------------------------10-----8----------8-----8--
G|--------------------------------------------------------------
D|--------------------------------------------------------------
A|--------------------------------------------------------------
E|--------------------------------------------------------------


e|--------------------------15---------13---------12---10---8--
B|-----8---------11--------------------------------------------
G|-------------------------------------------------------------
D|-------------------------------------------------------------
A|-------------------------------------------------------------
E|-------------------------------------------------------------


e|--10--------------12--13--12-------------------------12------
B|-------------------------------------------------------------
G|------------------------------------------10-----------------
D|-------------------------------------------------------------
A|-------------------------------------------------------------
E|-------------------------------------------------------------


e|----10---------------10---8---7-------7------------7--7------
B|------------12--------------------9----------10--------------
G|-------------------------------------------------------------
D|-------------------------------------------------------------
A|-------------------------------------------------------------
E|-------------------------------------------------------------

             
e|-------7--8----------7------------|
B|-10-------------------------------|
G|----------------------------------|
D|----------------------------------|
A|----------------------------------|
E|----------------------------------|




Guitar 2
 
e|-----------------8--12----------------8--12-
B|-------------10--------------------8--------
G|----------9---------------------9-----------
D|------10--------------------10--------------
A|--12--------------------10------------------
E|--------------------------------------------


e|-----------------10---------------8--10-
B|----------7--10----------------7--------
G|-------7--------------------7-----------
D|----7-------------------10--------------
A|-9-------------------9------------------
E|----------------------------------------


e|-------------------7-----------------7-
B|--------------10------------------9----
G|-----------9-------------------9-------
D|-----7--9----------------6--9----------
A|--7-------------------7----------------
E|---------------------------------------

 
e|----------------8--12-----------------8--12-
B|------------10--------------------10--------
G|---------9---------------------9------------
D|-----10--------------------10---------------
A|-12--------------------12-------------------
E|--------------------------------------------

  
e|------------------12-------------------12--
B|--------------10-------------------10------
G|-------9--10----------------9--10----------
D|----7--------------------7-----------------
A|-8--------------------8--------------------
E|-------------------------------------------


e|---------------8--12---------------8--12-
B|------------8-------------------8--------
G|---------9--------------------9----------
D|-----10-------------------10-------------
A|-10-------------------10-----------------
E|-----------------------------------------


e|---------------8--10----------------8--10-
B|------------8--------------------8--------
G|---------7--------------------7-----------
D|-----10-------------------10--------------
A|-10-------------------10------------------
E|------------------------------------------


e|---------------8--12----------------8--12-
B|------------8--------------------8--------
G|---------9--------------------9-----------
D|-----10-------------------10--------------
A|-10-------------------10------------------
E|------------------------------------------


e|---------------------12----------------------12-
B|-------------11--14------------------11--14-----
G|------------------------------------------------
D|-----11--14------------------11--14-------------
A|-13----------------------13---------------------
E|------------------------------------------------

  
e|----------------10--13------------------10--13-
B|------------10----------------------10---------
G|--------10----------------------10-------------
D|----12----------------------12-----------------
A|12----------------------12---------------------
E|-----------------------------------------------


e|---------------8--10----------------8--10-
B|------------8--------------------8--------
G|---------7--------------------7-----------
D|-----10-------------------10--------------
A|-10-------------------10------------------
E|------------------------------------------


e|--------------7--12---------------7--12-
B|-----------8-------------------8--------
G|--------9-------------------9-----------
D|-----9-------------------9--------------
A|-10------------------10-----------------
E|----------------------------------------


e|---------------8--12--------------------8-
B|------------------------------------------
G|--------9--10--------------------9--10----
D|----10-----------------------10-----------
A|-8--------------------8--10---------------
E|------------------------------------------


e|----------------10-----------------10-
B|-------------9------------------9-----
G|-------7--9---------------7--9--------
D|----6------------------6--------------
A|-7------------------7-----------------
E|--------------------------------------

  
e|----------------8--12---------------------8-
B|------------10------------------------------
G|---------9-------------------------9--10----
D|-----10------------------------10-----------
A|-12--------------------7--8-----------------
E|--------------------------------------------


e|-------------5--8--------------4--7--|
B|----------5-----------------5--------|
G|-------4-----------------4-----------|
D|----7-----------------6--------------|
A|-7-----------------7-----------------|
E|-------------------------------------|





        
Comments

No comments yet