Gametabs
Home
Tabs
Random

Hall of Mirrors

Average rating: 5.000

1 ratings

Composer:

Tabber:

Style:

Instrument:

Created: September 02, 2009 at 12:00 AM

                 
Shadowgate - Hall of Mirrors
Platform: Nintendo Entertainment System / Famicom
(Jap: 1989 / US : 1989 / UE : 1991)
Developer: ICOM Simulations
Publisher: Kemco
Composed by : Unknown
Tabbed by : Schin


e--10--------0----------6--10----12h-13p-12-----------
B--------11----------8------------------------12------
G-------------------------------------------------11--
D-----------------------------------------------------
A-----------------------------------------------------
E-----------------------------------------------------

e--14--------------------10--14----16h-17p-16-----------
B--------15----------12-------------------------17------
G------------13-------------------------------------15--
D-------------------------------------------------------
A-------------------------------------------------------
E-------------------------------------------------------

e--18--------------------14--18----20h-21p-20-----------
B--------19----------16-------------------------21------
G------------17-------------------------------------19--
D-------------------------------------------------------
A-------------------------------------------------------
E-------------------------------------------------------


Tablature Legend
----------------
h - hammer on
p - pull off
   

        
Comments

No comments yet