Gametabs
Home
Tabs
Random

Opening Theme

Average rating: 5.000

4 ratings

Composer:

Tabber:

Style:

Instrument:

Created: November 20, 2011 at 12:00 AM

            Plz dl GP5 file for drums and the guitar i added (solo + rhythm)

Melody

E |-------|----------------------------|
B |-------|-----------15-14-12-14-15---|
G |-------|----------------------------|
D |-------|----------------------------|
A |-------|----------------------------|
E |-------|----------------------------|


--12-------14---------------------------------------|
--------------------12L---------------12----10L-----|
----------------------------------------------------|
----------------------------------------------------|
----------------------------------------------------|
----------------------------------------------------|


----------------------------|
--10-------15-14-12-14-15---|
----------------------------|
----------------------------|
----------------------------|
----------------------------|


--12-------14-------12-------14-------12------------|
--------------------------------------------15------|
----------------------------------------------------|
----------------------------------------------------|
----------------------------------------------------|
----------------------------------------------------|


----------------------------|
--14-------15-14-12-14-15---|
----------------------------|
----------------------------|
----------------------------|
----------------------------|


--12-------14---------------------------------------|
--------------------12L---------------12----10L-----|
----------------------------------------------------|
----------------------------------------------------|
----------------------------------------------------|
----------------------------------------------------|


----------------------------|
--10-------15-14-12-14-15---|
----------------------------|
----------------------------|
----------------------------|
----------------------------|


--12-------14-------12-------14-------12------------|
--------------------------------------------15------|
----------------------------------------------------|
----------------------------------------------------|
----------------------------------------------------|
----------------------------------------------------|


--------------------------14-14----14----12-12------|
--14----------------12------------------------------|
----------------------------------------------------|
----------------------------------------------------|
----------------------------------------------------|
----------------------------------------------------|


--14----12----------------14-14----12----12-17------|
--------------------12------------------------------|
----------------------------------------------------|
----------------------------------------------------|
----------------------------------------------------|
----------------------------------------------------|


--12------------------------|
-----------15-14-12-14-15---|
----------------------------|
----------------------------|
----------------------------|
----------------------------|


--12----------------14----------12------------------|
-----------12-------------------------15----14L-----|
----------------------------------------------------|
----------------------------------------------------|
----------------------------------------------------|
----------------------------------------------------|


--------------------------------------17h19L---------------19-17----------------
--14----------------------------------------------------------------------17----
--------------------------------------------------------------------------------
--------------------------------------------------------------------------------
--------------------------------------------------------------------------------
--------------------------------------------------------------------------------


--------------------|
------17L-----------|
--------------------|
--------------------|
--------------------|
--------------------|


--------------------------------------------------17h19-------17----------------
--17----------19----------------------------------------------------------17----
--------------------------------------------------------------------------------
--------------------------------------------------------------------------------
--------------------------------------------------------------------------------
--------------------------------------------------------------------------------


--------------------|
------17L-----------|
--------------------|
--------------------|
--------------------|
--------------------|


--------------------------------------------------17h19-------17----------------
--17----------19----------------------------------------------------------17----
--------------------------------------------------------------------------------
--------------------------------------------------------------------------------
--------------------------------------------------------------------------------
--------------------------------------------------------------------------------


--------------------|----------------------------|
------17L-----------|--17-17-17----15-17L--------|
--------------------|----------------------------|
--------------------|----------------------------|
--------------------|----------------------------|
--------------------|----------------------------|


--------------------------------------------------------------------------------
--17L---------------17----------------15----------14----------12----------14----
--------------------------------------------------------------------------------
--------------------------------------------------------------------------------
--------------------------------------------------------------------------------
--------------------------------------------------------------------------------


--------------------|--12-------14---------------------------------------|
------15------------|--------------------12L---------------12----10L-----|
--------------------|----------------------------------------------------|
--------------------|----------------------------------------------------|
--------------------|----------------------------------------------------|
--------------------|----------------------------------------------------|


----------------------------|
--10-------15-14-12-14-15---|
----------------------------|
----------------------------|
----------------------------|
----------------------------|


--12-------14-------12-------14-------12------------|
--------------------------------------------15------|
----------------------------------------------------|
----------------------------------------------------|
----------------------------------------------------|
----------------------------------------------------|


----------------------------|
--14-------15-14-12-14-15---|
----------------------------|
----------------------------|
----------------------------|
----------------------------|


--12-------14---------------------------------------|
--------------------12L---------------12----10L-----|
----------------------------------------------------|
----------------------------------------------------|
----------------------------------------------------|
----------------------------------------------------|


----------------------------|
--10-------15-14-12-14-15---|
----------------------------|
----------------------------|
----------------------------|
----------------------------|


--12-------14-------12-------14-------12------------|
--------------------------------------------15------|
----------------------------------------------------|
----------------------------------------------------|
----------------------------------------------------|
----------------------------------------------------|


--------------------------14-14----14----12-12------|
--14----------------12------------------------------|
----------------------------------------------------|
----------------------------------------------------|
----------------------------------------------------|
----------------------------------------------------|


--14----12----------------14-14----12----12-17------|
--------------------12------------------------------|
----------------------------------------------------|
----------------------------------------------------|
----------------------------------------------------|
----------------------------------------------------|


--12------------------------|
-----------15-14-12-14-15---|
----------------------------|
----------------------------|
----------------------------|
----------------------------|


--12----------------14----------12------------------|
-----------12-------------------------15----14L-----|
----------------------------------------------------|
----------------------------------------------------|
----------------------------------------------------|
----------------------------------------------------|


--------------------------------------17h19L---------------19-17----------------
--14----------------------------------------------------------------------17----
--------------------------------------------------------------------------------
--------------------------------------------------------------------------------
--------------------------------------------------------------------------------
--------------------------------------------------------------------------------


--------------------|
------17L-----------|
--------------------|
--------------------|
--------------------|
--------------------|


--------------------------------------------------17h19-------17----------------
--17----------19----------------------------------------------------------17----
--------------------------------------------------------------------------------
--------------------------------------------------------------------------------
--------------------------------------------------------------------------------
--------------------------------------------------------------------------------


--------------------|
------17L-----------|
--------------------|
--------------------|
--------------------|
--------------------|


--------------------------------------------------17h19-------17----------------
--17----------19----------------------------------------------------------17----
--------------------------------------------------------------------------------
--------------------------------------------------------------------------------
--------------------------------------------------------------------------------
--------------------------------------------------------------------------------


--------------------|-----------------------17L--|
------17L-----------|--17-17-17----15-17-15------|
--------------------|----------------------------|
--------------------|----------------------------|
--------------------|----------------------------|
--------------------|----------------------------|


--17----14----------17h19-------17------------------|
--------------------------------------17----17L-----|
----------------------------------------------------|
----------------------------------------------------|
----------------------------------------------------|
----------------------------------------------------|


--------------------------------------------------17h19-------17----------------
--17----------19----------------------------------------------------------17----
--------------------------------------------------------------------------------
--------------------------------------------------------------------------------
--------------------------------------------------------------------------------
--------------------------------------------------------------------------------


--------------------|
------17L-----------|
--------------------|
--------------------|
--------------------|
--------------------|


--------------------------------------------------17h19-------17----------------
--17----------19----------17----------------------------------------------17----
--------------------------------------------------------------------------------
--------------------------------------------------------------------------------
--------------------------------------------------------------------------------
--------------------------------------------------------------------------------


--------------------|-----------------------17L--|
------17L-----------|--17-19-------15-17-15------|
--------------------|----------------------------|
--------------------|----------------------------|
--------------------|----------------------------|
--------------------|----------------------------|


--17----14L---------------------------------14------|----|----|----|----|----|
----------------------------------------------------|----|----|----|----|----|
----------------------------------------------------|----|----|----|----|----|
----------------------------------------------------|----|----|----|----|----|
----------------------------------------------------|----|----|----|----|----|
----------------------------------------------------|----|----|----|----|----|


----|----|----|----|----|----|----|----|----|----|
----|----|----|----|----|----|----|----|----|----|
----|----|----|----|----|----|----|----|----|----|
----|----|----|----|----|----|----|----|----|----|
----|----|----|----|----|----|----|----|----|----|
----|----|----|----|----|----|----|----|----|----|


--------------------17h19-------17------------------|
--------------------------------------17----17L-----|
----------------------------------------------------|
----------------------------------------------------|
----------------------------------------------------|
----------------------------------------------------|


--------------------------------------------------17h19-------17----------------
--17----------19----------------------------------------------------------17----
--------------------------------------------------------------------------------
--------------------------------------------------------------------------------
--------------------------------------------------------------------------------
--------------------------------------------------------------------------------


--------------------|
------17L-----------|
--------------------|
--------------------|
--------------------|
--------------------|


--------------------------------------------------17h19-------17----------------
--17----------19----------------------------------------------------------17----
--------------------------------------------------------------------------------
--------------------------------------------------------------------------------
--------------------------------------------------------------------------------
--------------------------------------------------------------------------------


--------------------|-----------------------17L--|
------17L-----------|--17-17-17----15-17-15------|
--------------------|----------------------------|
--------------------|----------------------------|
--------------------|----------------------------|
--------------------|----------------------------|


--17----14----------17h19-------17------------------|
--------------------------------------17----17L-----|
----------------------------------------------------|
----------------------------------------------------|
----------------------------------------------------|
----------------------------------------------------|


--------------------------------------------------17h19-------17----------------
--17----------19----------------------------------------------------------17----
--------------------------------------------------------------------------------
--------------------------------------------------------------------------------
--------------------------------------------------------------------------------
--------------------------------------------------------------------------------


--------------------|
------17L-----------|
--------------------|
--------------------|
--------------------|
--------------------|


--------------------------------------------------17h19-------17----------------
--17----------19----------17----------------------------------------------17----
--------------------------------------------------------------------------------
--------------------------------------------------------------------------------
--------------------------------------------------------------------------------
--------------------------------------------------------------------------------


--------------------|-----------------------17L--|
------17L-----------|--17-19-------15-17-15------|
--------------------|----------------------------|
--------------------|----------------------------|
--------------------|----------------------------|
--------------------|----------------------------|


--17----14L---------------------------------14------|--17L--|
----------------------------------------------------|-------|
----------------------------------------------------|-------|
----------------------------------------------------|-------|
----------------------------------------------------|-------|
----------------------------------------------------|-------|


--17----------------------14----17-14---------------|
-----------------------------------------15---------|
----------------------------------------------------|
----------------------------------------------------|
----------------------------------------------------|
----------------------------------------------------|


----------------------------------------------------|-------|
----------------------------------------------------|-------|
--16----------------------------------14-16-14------|-------|
----------------------------------------------------|--16---|
----------------------------------------------------|-------|
----------------------------------------------------|-------|


--------------17-------17-------17-------17---------|
--------------------19-------19-------19-------19---|
----------------------------------------------------|
----------------------------------------------------|
----------------------------------------------------|
----------------------------------------------------|


--17-------17-------------------------------17L-----|
--------19----------------------19------------------|
----------------------------------------------------|
----------------------------------------------------|
----------------------------------------------------|
----------------------------------------------------|


--17------------------------------------------------|
--------------19-17---------------------------------|
--------------------19----16------------------------|
----------------------------------------------------|
----------------------------------------------------|
----------------------------------------------------|


--------------------17h19-------17------------------|
--------------------------------------17----17L-----|
----------------------------------------------------|
----------------------------------------------------|
----------------------------------------------------|
----------------------------------------------------|


--------------------------------------------------17h19-------17----------------
--17----------19----------------------------------------------------------17----
--------------------------------------------------------------------------------
--------------------------------------------------------------------------------
--------------------------------------------------------------------------------
--------------------------------------------------------------------------------


--------------------|
------17L-----------|
--------------------|
--------------------|
--------------------|
--------------------|


--------------------------------------------------17h19-------17----------------
--17----------19----------------------------------------------------------17----
--------------------------------------------------------------------------------
--------------------------------------------------------------------------------
--------------------------------------------------------------------------------
--------------------------------------------------------------------------------


--------------------|-----------------------17L--|
------17L-----------|--17-17-17----15-17-15------|
--------------------|----------------------------|
--------------------|----------------------------|
--------------------|----------------------------|
--------------------|----------------------------|


--17----14----------17h19-------17------------------|
--------------------------------------17----17L-----|
----------------------------------------------------|
----------------------------------------------------|
----------------------------------------------------|
----------------------------------------------------|


--------------------------------------------------17h19-------17----------------
--17----------19----------------------------------------------------------17----
--------------------------------------------------------------------------------
--------------------------------------------------------------------------------
--------------------------------------------------------------------------------
--------------------------------------------------------------------------------


--------------------|
------17L-----------|
--------------------|
--------------------|
--------------------|
--------------------|


--------------------------------------------------17h19-------17----------------
--17----------19----------17----------------------------------------------17----
--------------------------------------------------------------------------------
--------------------------------------------------------------------------------
--------------------------------------------------------------------------------
--------------------------------------------------------------------------------


--------------------|-----------------------17L--|
------17L-----------|--17-19-------15-17-15------|
--------------------|----------------------------|
--------------------|----------------------------|
--------------------|----------------------------|
--------------------|----------------------------|


--17----14L---------------------------------14L14L--|--14------|----||
----------------------------------------------------|----------|----||
----------------------------------------------------|----------|----||
----------------------------------------------------|----------|----||
----------------------------------------------------|----------|----||
----------------------------------------------------|----------|----||



Rhythm

E |----|----|--3-----------3-----3--3-----3--------3--3--3--3----|
B |----|----|--3-----------3-----3--3-----3--------3--3--3--3----|
G |----|----|--4-----------4-----4--4-----4--------4--4--4--4----|
D |----|----|--5-----------5-----5--5-----5--------5--5--5--5----|
A |----|----|--5-----------5-----5--5-----5--------5--5--5--5----|
E |----|----|--3-----------3-----3--3-----3--------3--3--3--3----|

  ^           ^     ^  v     v        ^  v  ^  v     
--2-----------2-----2--2-----2--------2--2--2--2----|
--3-----------3-----3--3-----3--------3--3--3--3----|
--4-----------4-----4--4-----4--------4--4--4--4----|
--4-----------4-----4--4-----4--------4--4--4--4----|
--2-----------2-----5--2-----2--------2--2--2--2----|
----------------------------------------------------|

  ^           ^     ^  v     v        ^  v  ^  v     
--0-----------0-----0--0-----0--------0--0--0--0----|
--3-----------3-----3--3-----3--------3--3--3--3----|
--0-----------0-----0--0-----0--------0--0--0--0----|
--2-----------2-----2--2-----2--------2--2--2--2----|
--2-----------2-----2--2-----2--------2--2--2--2----|
----------------------------------------------------|

  ^           ^     ^  v     v        ^  v  ^  v     
--2-----------2-----2--2-----2--------2--2--2--2----|
--3-----------3-----3--3-----3--------3--3--3--3----|
--4-----------4-----4--4-----4--------4--4--4--4----|
--4-----------4-----4--4-----4--------4--4--4--4----|
--2-----------2-----5--2-----2--------2--2--2--2----|
----------------------------------------------------|

  ^           ^     ^  v     v        ^  v  ^  v     
--3-----------3-----3--3-----3--------3--3--3--3----|
--3-----------3-----3--3-----3--------3--3--3--3----|
--4-----------4-----4--4-----4--------4--4--4--4----|
--5-----------5-----5--5-----5--------5--5--5--5----|
--5-----------5-----5--5-----5--------5--5--5--5----|
--3-----------3-----3--3-----3--------3--3--3--3----|

  ^           ^     ^  v     v        ^  v  ^  v     
--2-----------2-----2--2-----2--------2--2--2--2----|
--3-----------3-----3--3-----3--------3--3--3--3----|
--4-----------4-----4--4-----4--------4--4--4--4----|
--4-----------4-----4--4-----4--------4--4--4--4----|
--2-----------2-----5--2-----2--------2--2--2--2----|
----------------------------------------------------|

  ^           ^     ^  v     v        ^  v  ^  v     
--0-----------0-----0--0-----0--------0--0--0--0----|
--3-----------3-----3--3-----3--------3--3--3--3----|
--0-----------0-----0--0-----0--------0--0--0--0----|
--2-----------2-----2--2-----2--------2--2--2--2----|
--2-----------2-----2--2-----2--------2--2--2--2----|
----------------------------------------------------|

  ^           ^     ^  v     v        ^  v  ^  v     
--2-----------2-----2--2-----2--------2--2--2--2----|
--3-----------3-----3--3-----3--------3--3--3--3----|
--4-----------4-----4--4-----4--------4--4--4--4----|
--4-----------4-----4--4-----4--------4--4--4--4----|
--2-----------2-----5--2-----2--------2--2--2--2----|
----------------------------------------------------|

  ^           ^     ^  v     v        ^  v  ^  v     
--3-----------3-----3--3-----3--------3--3--3--3----|
--3-----------3-----3--3-----3--------3--3--3--3----|
--4-----------4-----4--4-----4--------4--4--4--4----|
--5-----------5-----5--5-----5--------5--5--5--5----|
--5-----------5-----5--5-----5--------5--5--5--5----|
--3-----------3-----3--3-----3--------3--3--3--3----|

  ^           ^     ^  v     v        ^  v  ^  v     
--2-----------2-----2--2-----2--------2--2--2--2----|
--3-----------3-----3--3-----3--------3--3--3--3----|
--4-----------4-----4--4-----4--------4--4--4--4----|
--4-----------4-----4--4-----4--------4--4--4--4----|
--2-----------2-----5--2-----2--------2--2--2--2----|
----------------------------------------------------|

  ^           ^     ^  v     v        ^  v  ^  v     
--0-----------0-----0--0-----0--------0--0--0--0----|
--3-----------3-----3--3-----3--------3--3--3--3----|
--0-----------0-----0--0-----0--------0--0--0--0----|
--2-----------2-----2--2-----2--------2--2--2--2----|
--2-----------2-----2--2-----2--------2--2--2--2----|
----------------------------------------------------|

  ^           ^     ^  v     v        ^  v  ^  v     
--2-----------2-----2--2-----2--------2--2--2--2----|
--3-----------3-----3--3-----3--------3--3--3--3----|
--4-----------4-----4--4-----4--------4--4--4--4----|
--4-----------4-----4--4-----4--------4--4--4--4----|
--2-----------2-----5--2-----2--------2--2--2--2----|
----------------------------------------------------|

  ^           ^           ^           ^              
--0-----------0-----------2-----------2-------------|
--3-----------3-----x--x--3-----------3-----x--x----|
--0-----------0-----x--x--4-----------4-----x--x----|
--2-----------2-----x--x--4-----------4-----x--x----|
--2-----------2-----x--x--2-----------2-----x--x----|
----------------------------------------------------|

  ^           ^           ^           ^              
--------------------------2-----------2-------------|
--3-----------3-----x--x--3-----------3-----x--x----|
--4-----------4-----x--x--4-----------4-----x--x----|
--5-----------5-----x--x--4-----------4-----x--x----|
--5-----------5-----x--x--2-----------2-----x--x----|
--3-----------3-------------------------------------|

  ^           ^           ^     ^           ^                
--0-----------0-----------2-----2-----------3L------|--3----|
--3-----------3-----x--x--3-----3-----------3L------|--3----|
--0-----------0-----x--x--4-----4-----------4L------|--4----|
--2-----------2-----x--x--4-----4-----------5L------|--5----|
--2-----------2-----x--x--2-----2-----------5L------|--5----|
--------------------------------------------3L------|--3----|

  ^           ^     ^  v     v        ^  v  ^  v     
--3-----------3-----3--3-----3--------3--3--3--3----|
--3-----------3-----3--3-----3--------3--3--3--3----|
--4-----------4-----4--4-----4--------4--4--4--4----|
--5-----------5-----5--5-----5--------5--5--5--5----|
--5-----------5-----5--5-----5--------5--5--5--5----|
--3-----------3-----3--3-----3--------3--3--3--3----|

  ^           ^     ^  v     v        ^  v  ^  v     
--2-----------2-----2--2-----2--------2--2--2--2----|
--3-----------3-----3--3-----3--------3--3--3--3----|
--4-----------4-----4--4-----4--------4--4--4--4----|
--4-----------4-----4--4-----4--------4--4--4--4----|
--2-----------2-----5--2-----2--------2--2--2--2----|
----------------------------------------------------|

  ^           ^     ^  v     v        ^  v  ^  v     
--0-----------0-----0--0-----0--------0--0--0--0----|
--3-----------3-----3--3-----3--------3--3--3--3----|
--0-----------0-----0--0-----0--------0--0--0--0----|
--2-----------2-----2--2-----2--------2--2--2--2----|
--2-----------2-----2--2-----2--------2--2--2--2----|
----------------------------------------------------|

  ^           ^     ^  v     v        ^  v  ^  v     
--2-----------2-----2--2-----2--------2--2--2--2----|
--3-----------3-----3--3-----3--------3--3--3--3----|
--4-----------4-----4--4-----4--------4--4--4--4----|
--4-----------4-----4--4-----4--------4--4--4--4----|
--2-----------2-----5--2-----2--------2--2--2--2----|
----------------------------------------------------|

  ^           ^     ^  v     v        ^  v  ^  v     
--3-----------3-----3--3-----3--------3--3--3--3----|
--3-----------3-----3--3-----3--------3--3--3--3----|
--4-----------4-----4--4-----4--------4--4--4--4----|
--5-----------5-----5--5-----5--------5--5--5--5----|
--5-----------5-----5--5-----5--------5--5--5--5----|
--3-----------3-----3--3-----3--------3--3--3--3----|

  ^           ^     ^  v     v        ^  v  ^  v     
--2-----------2-----2--2-----2--------2--2--2--2----|
--3-----------3-----3--3-----3--------3--3--3--3----|
--4-----------4-----4--4-----4--------4--4--4--4----|
--4-----------4-----4--4-----4--------4--4--4--4----|
--2-----------2-----5--2-----2--------2--2--2--2----|
----------------------------------------------------|

  ^           ^     ^  v     v        ^  v  ^  v     
--0-----------0-----0--0-----0--------0--0--0--0----|
--3-----------3-----3--3-----3--------3--3--3--3----|
--0-----------0-----0--0-----0--------0--0--0--0----|
--2-----------2-----2--2-----2--------2--2--2--2----|
--2-----------2-----2--2-----2--------2--2--2--2----|
----------------------------------------------------|

  ^           ^     ^  v     v        ^  v  ^  v     
--2-----------2-----2--2-----2--------2--2--2--2----|
--3-----------3-----3--3-----3--------3--3--3--3----|
--4-----------4-----4--4-----4--------4--4--4--4----|
--4-----------4-----4--4-----4--------4--4--4--4----|
--2-----------2-----5--2-----2--------2--2--2--2----|
----------------------------------------------------|

  ^           ^     ^  v     v        ^  v  ^  v     
--3-----------3-----3--3-----3--------3--3--3--3----|
--3-----------3-----3--3-----3--------3--3--3--3----|
--4-----------4-----4--4-----4--------4--4--4--4----|
--5-----------5-----5--5-----5--------5--5--5--5----|
--5-----------5-----5--5-----5--------5--5--5--5----|
--3-----------3-----3--3-----3--------3--3--3--3----|

  ^           ^     ^  v     v        ^  v  ^  v     
--2-----------2-----2--2-----2--------2--2--2--2----|
--3-----------3-----3--3-----3--------3--3--3--3----|
--4-----------4-----4--4-----4--------4--4--4--4----|
--4-----------4-----4--4-----4--------4--4--4--4----|
--2-----------2-----5--2-----2--------2--2--2--2----|
----------------------------------------------------|

  ^           ^     ^  v     v        ^  v  ^  v     
--0-----------0-----0--0-----0--------0--0--0--0----|
--3-----------3-----3--3-----3--------3--3--3--3----|
--0-----------0-----0--0-----0--------0--0--0--0----|
--2-----------2-----2--2-----2--------2--2--2--2----|
--2-----------2-----2--2-----2--------2--2--2--2----|
----------------------------------------------------|

  ^           ^     ^  v     v        ^  v  ^  v     
--2-----------2-----2--2-----2--------2--2--2--2----|
--3-----------3-----3--3-----3--------3--3--3--3----|
--4-----------4-----4--4-----4--------4--4--4--4----|
--4-----------4-----4--4-----4--------4--4--4--4----|
--2-----------2-----5--2-----2--------2--2--2--2----|
----------------------------------------------------|

  ^           ^           ^           ^              
--0-----------0-----------2-----------2-------------|
--3-----------3-----x--x--3-----------3-----x--x----|
--0-----------0-----x--x--4-----------4-----x--x----|
--2-----------2-----x--x--4-----------4-----x--x----|
--2-----------2-----x--x--2-----------2-----x--x----|
----------------------------------------------------|

  ^           ^           ^           ^              
--------------------------2-----------2-------------|
--3-----------3-----x--x--3-----------3-----x--x----|
--4-----------4-----x--x--4-----------4-----x--x----|
--5-----------5-----x--x--4-----------4-----x--x----|
--5-----------5-----x--x--2-----------2-----x--x----|
--3-----------3-------------------------------------|

  ^           ^           ^     ^           ^        
--0-----------0-----------2-----2-----------3L------|
--3-----------3-----x--x--3-----3-----------3L------|
--0-----------0-----x--x--4-----4-----------4L------|
--2-----------2-----x--x--4-----4-----------5L------|
--2-----------2-----x--x--2-----2-----------5L------|
--------------------------------------------3L------|

        ^  ^  ^  ^  ^  ^     
--3-------------------------|
--3-----3--3--3--3--3--3----|
--4-----4--4--4--4--4--4----|
--5-----5--5--5--5--5--5----|
--5-----5--5--5--5--5--5----|
--3-----3--3--3--3--3--3----|

  ^           ^           ^           ^              
--0-----------0-----------2-----------2-------------|
--3-----------3-----x--x--3-----------3-----x--x----|
--0-----------0-----x--x--4-----------4-----x--x----|
--2-----------2-----x--x--4-----------4-----x--x----|
--2-----------2-----x--x--2-----------2-----x--x----|
----------------------------------------------------|

  ^           ^           ^           ^              
--------------------------2-----------2-------------|
--3-----------3-----x--x--3-----------3-----x--x----|
--4-----------4-----x--x--4-----------4-----x--x----|
--5-----------5-----x--x--4-----------4-----x--x----|
--5-----------5-----x--x--2-----------2-----x--x----|
--3-----------3-------------------------------------|

  ^           ^           ^     ^           ^                  ^       ^     
--0-----------0-----------2-----2-----------3L------|--3----|--3----|--2----|
--3-----------3-----x--x--3-----3-----------3L------|--3----|--3----|--3----|
--0-----------0-----x--x--4-----4-----------4L------|--4----|--4----|--4----|
--2-----------2-----x--x--4-----4-----------5L------|--5----|--5----|--4----|
--2-----------2-----x--x--2-----2-----------5L------|--5----|--5----|--2----|
--------------------------------------------3L------|--3----|--3----|-------|

  ^       ^       ^       ^       ^       ^     
--0----|--2----|--3----|--2----|--0----|--2----|
--3----|--3----|--3----|--3----|--3----|--3----|
--0----|--4----|--4----|--4----|--0----|--4----|
--2----|--4----|--5----|--4----|--2----|--4----|
--2----|--2----|--5----|--2----|--2----|--2----|
-------|-------|--3----|-------|-------|-------|

  ^           ^     ^  v     v        ^  v  ^  v     
--3-----------3-----3--3-----3--------3--3--3--3----|
--3-----------3-----3--3-----3--------3--3--3--3----|
--4-----------4-----4--4-----4--------4--4--4--4----|
--5-----------5-----5--5-----5--------5--5--5--5----|
--5-----------5-----5--5-----5--------5--5--5--5----|
--3-----------3-----3--3-----3--------3--3--3--3----|

  ^           ^     ^  v     v        ^  v  ^  v     
--2-----------2-----2--2-----2--------2--2--2--2----|
--3-----------3-----3--3-----3--------3--3--3--3----|
--4-----------4-----4--4-----4--------4--4--4--4----|
--4-----------4-----4--4-----4--------4--4--4--4----|
--2-----------2-----5--2-----2--------2--2--2--2----|
----------------------------------------------------|

  ^           ^     ^  v     v        ^  v  ^  v     
--0-----------0-----0--0-----0--------0--0--0--0----|
--3-----------3-----3--3-----3--------3--3--3--3----|
--0-----------0-----0--0-----0--------0--0--0--0----|
--2-----------2-----2--2-----2--------2--2--2--2----|
--2-----------2-----2--2-----2--------2--2--2--2----|
----------------------------------------------------|

  ^           ^     ^  v     v        ^  v  ^  v     
--2-----------2-----2--2-----2--------2--2--2--2----|
--3-----------3-----3--3-----3--------3--3--3--3----|
--4-----------4-----4--4-----4--------4--4--4--4----|
--4-----------4-----4--4-----4--------4--4--4--4----|
--2-----------2-----5--2-----2--------2--2--2--2----|
----------------------------------------------------|

  ^           ^     ^  v     v        ^  v  ^  v     
--3-----------3-----3--3-----3--------3--3--3--3----|
--3-----------3-----3--3-----3--------3--3--3--3----|
--4-----------4-----4--4-----4--------4--4--4--4----|
--5-----------5-----5--5-----5--------5--5--5--5----|
--5-----------5-----5--5-----5--------5--5--5--5----|
--3-----------3-----3--3-----3--------3--3--3--3----|

  ^           ^     ^  v     v        ^  v  ^  v     
--2-----------2-----2--2-----2--------2--2--2--2----|
--3-----------3-----3--3-----3--------3--3--3--3----|
--4-----------4-----4--4-----4--------4--4--4--4----|
--4-----------4-----4--4-----4--------4--4--4--4----|
--2-----------2-----5--2-----2--------2--2--2--2----|
----------------------------------------------------|

  ^           ^     ^  v     v        ^  v  ^  v     
--0-----------0-----0--0-----0--------0--0--0--0----|
--3-----------3-----3--3-----3--------3--3--3--3----|
--0-----------0-----0--0-----0--------0--0--0--0----|
--2-----------2-----2--2-----2--------2--2--2--2----|
--2-----------2-----2--2-----2--------2--2--2--2----|
----------------------------------------------------|

  ^           ^     ^  v     v        ^  v  ^  v     
--2-----------2-----2--2-----2--------2--2--2--2----|
--3-----------3-----3--3-----3--------3--3--3--3----|
--4-----------4-----4--4-----4--------4--4--4--4----|
--4-----------4-----4--4-----4--------4--4--4--4----|
--2-----------2-----5--2-----2--------2--2--2--2----|
----------------------------------------------------|

  ^           ^           ^           ^              
--0-----------0-----------2-----------2-------------|
--3-----------3-----x--x--3-----------3-----x--x----|
--0-----------0-----x--x--4-----------4-----x--x----|
--2-----------2-----x--x--4-----------4-----x--x----|
--2-----------2-----x--x--2-----------2-----x--x----|
----------------------------------------------------|

  ^           ^           ^           ^              
--------------------------2-----------2-------------|
--3-----------3-----x--x--3-----------3-----x--x----|
--4-----------4-----x--x--4-----------4-----x--x----|
--5-----------5-----x--x--4-----------4-----x--x----|
--5-----------5-----x--x--2-----------2-----x--x----|
--3-----------3-------------------------------------|

  ^           ^           ^     ^           ^        
--0-----------0-----------2-----2-----------3L------|
--3-----------3-----x--x--3-----3-----------3L------|
--0-----------0-----x--x--4-----4-----------4L------|
--2-----------2-----x--x--4-----4-----------5L------|
--2-----------2-----x--x--2-----2-----------5L------|
--------------------------------------------3L------|

        ^  ^  ^  ^  ^  ^     
--3-------------------------|
--3-----3--3--3--3--3--3----|
--4-----4--4--4--4--4--4----|
--5-----5--5--5--5--5--5----|
--5-----5--5--5--5--5--5----|
--3-----3--3--3--3--3--3----|

  ^           ^           ^           ^              
--0-----------0-----------2-----------2-------------|
--3-----------3-----x--x--3-----------3-----x--x----|
--0-----------0-----x--x--4-----------4-----x--x----|
--2-----------2-----x--x--4-----------4-----x--x----|
--2-----------2-----x--x--2-----------2-----x--x----|
----------------------------------------------------|

  ^           ^           ^           ^              
--------------------------2-----------2-------------|
--3-----------3-----x--x--3-----------3-----x--x----|
--4-----------4-----x--x--4-----------4-----x--x----|
--5-----------5-----x--x--4-----------4-----x--x----|
--5-----------5-----x--x--2-----------2-----x--x----|
--3-----------3-------------------------------------|

  ^           ^           ^     ^           ^                
--0-----------0-----------2-----2-----------3L------|--3----|
--3-----------3-----x--x--3-----3-----------3L------|--3----|
--0-----------0-----x--x--4-----4-----------4L------|--4----|
--2-----------2-----x--x--4-----4-----------5L------|--5----|
--2-----------2-----x--x--2-----2-----------5L------|--5----|
--------------------------------------------3L------|--3----|

  ^           ^     ^  v     v        ^  v  ^  v     
--3-----------3-----3--3-----3--------3--3--3--3----|
--3-----------3-----3--3-----3--------3--3--3--3----|
--4-----------4-----4--4-----4--------4--4--4--4----|
--5-----------5-----5--5-----5--------5--5--5--5----|
--5-----------5-----5--5-----5--------5--5--5--5----|
--3-----------3-----3--3-----3--------3--3--3--3----|

  ^           ^     ^  v     v        ^  v  ^  v     
--2-----------2-----2--2-----2--------2--2--2--2----|
--3-----------3-----3--3-----3--------3--3--3--3----|
--4-----------4-----4--4-----4--------4--4--4--4----|
--4-----------4-----4--4-----4--------4--4--4--4----|
--2-----------2-----5--2-----2--------2--2--2--2----|
----------------------------------------------------|

  ^           ^     ^  v     v        ^  v  ^  v     
--0-----------0-----0--0-----0--------0--0--0--0----|
--3-----------3-----3--3-----3--------3--3--3--3----|
--0-----------0-----0--0-----0--------0--0--0--0----|
--2-----------2-----2--2-----2--------2--2--2--2----|
--2-----------2-----2--2-----2--------2--2--2--2----|
----------------------------------------------------|

  ^           ^     ^  v     v        ^  v  ^  v     
--2-----------2-----2--2-----2--------2--2--2--2----|
--3-----------3-----3--3-----3--------3--3--3--3----|
--4-----------4-----4--4-----4--------4--4--4--4----|
--4-----------4-----4--4-----4--------4--4--4--4----|
--2-----------2-----5--2-----2--------2--2--2--2----|
----------------------------------------------------|

  ^           ^     ^  v     v        ^  v  ^  v     
--3-----------3-----3--3-----3--------3--3--3--3----|
--3-----------3-----3--3-----3--------3--3--3--3----|
--4-----------4-----4--4-----4--------4--4--4--4----|
--5-----------5-----5--5-----5--------5--5--5--5----|
--5-----------5-----5--5-----5--------5--5--5--5----|
--3-----------3-----3--3-----3--------3--3--3--3----|

  ^           ^     ^  v     v        ^  v  ^  v     
--2-----------2-----2--2-----2--------2--2--2--2----|
--3-----------3-----3--3-----3--------3--3--3--3----|
--4-----------4-----4--4-----4--------4--4--4--4----|
--4-----------4-----4--4-----4--------4--4--4--4----|
--2-----------2-----5--2-----2--------2--2--2--2----|
----------------------------------------------------|

  ^           ^     ^  v     v        ^  v  ^  v     
--0-----------0-----0--0-----0--------0--0--0--0----|
--3-----------3-----3--3-----3--------3--3--3--3----|
--0-----------0-----0--0-----0--------0--0--0--0----|
--2-----------2-----2--2-----2--------2--2--2--2----|
--2-----------2-----2--2-----2--------2--2--2--2----|
----------------------------------------------------|

  ^           ^     ^  v     v        ^  v  ^  v     
--2-----------2-----2--2-----2--------2--2--2--2----|
--3-----------3-----3--3-----3--------3--3--3--3----|
--4-----------4-----4--4-----4--------4--4--4--4----|
--4-----------4-----4--4-----4--------4--4--4--4----|
--2-----------2-----5--2-----2--------2--2--2--2----|
----------------------------------------------------|

  ^           ^           ^           ^              
--0-----------0-----------2-----------2-------------|
--3-----------3-----x--x--3-----------3-----x--x----|
--0-----------0-----x--x--4-----------4-----x--x----|
--2-----------2-----x--x--4-----------4-----x--x----|
--2-----------2-----x--x--2-----------2-----x--x----|
----------------------------------------------------|

  ^           ^           ^           ^              
--------------------------2-----------2-------------|
--3-----------3-----x--x--3-----------3-----x--x----|
--4-----------4-----x--x--4-----------4-----x--x----|
--5-----------5-----x--x--4-----------4-----x--x----|
--5-----------5-----x--x--2-----------2-----x--x----|
--3-----------3-------------------------------------|

  ^           ^           ^     ^           ^        
--0-----------0-----------2-----2-----------3L------|
--3-----------3-----x--x--3-----3-----------3L------|
--0-----------0-----x--x--4-----4-----------4L------|
--2-----------2-----x--x--4-----4-----------5L------|
--2-----------2-----x--x--2-----2-----------5L------|
--------------------------------------------3L------|

        ^  ^  ^  ^  ^  ^     
--3-------------------------|
--3-----3--3--3--3--3--3----|
--4-----4--4--4--4--4--4----|
--5-----5--5--5--5--5--5----|
--5-----5--5--5--5--5--5----|
--3-----3--3--3--3--3--3----|

  ^           ^           ^           ^              
--0-----------0-----------2-----------2-------------|
--3-----------3-----x--x--3-----------3-----x--x----|
--0-----------0-----x--x--4-----------4-----x--x----|
--2-----------2-----x--x--4-----------4-----x--x----|
--2-----------2-----x--x--2-----------2-----x--x----|
----------------------------------------------------|

  ^           ^           ^           ^              
--------------------------2-----------2-------------|
--3-----------3-----x--x--3-----------3-----x--x----|
--4-----------4-----x--x--4-----------4-----x--x----|
--5-----------5-----x--x--4-----------4-----x--x----|
--5-----------5-----x--x--2-----------2-----x--x----|
--3-----------3-------------------------------------|

  ^           ^           ^     ^           ^
--0-----------0-----------2-----2-----------3L------|--3----|----|----||
--3-----------3-----x--x--3-----3-----------3L------|--3----|----|----||
--0-----------0-----x--x--4-----4-----------4L------|--4----|----|----||
--2-----------2-----x--x--4-----4-----------5L------|--5----|----|----||
--2-----------2-----x--x--2-----2-----------5L------|--5----|----|----||
--------------------------------------------3L------|--3----|----|----||



Harmony

E |----|----|----|-----------2L----------------2--2-------------------|
B |----|----|----|--------3--------------------------------3----------|
G |----|----|----|--4-------------------------------------------------|
D |----|----|----|----------------------------------------------------|
A |----|----|----|----------------------------------------------------|
E |----|----|----|----------------------------------------------------|


----------|-----------------------2--------5-------------------|-------|
----------|--------------3-------------------------------------|-------|
--4-------|----------------------------------------------------|-------|
----------|----------------------------------------------------|-------|
----------|----------------------------------------------------|-------|
----------|----------------------------------------------------|-------|


-----------2L----------------2--2-------------------|
--------3--------------------------------3----------|
--4-------------------------------------------------|
----------------------------------------------------|
----------------------------------------------------|
----------------------------------------------------|


--------------------------------2--------0----------|
----------------------------------------------------|
--4-------------------------------------------------|
----------------------------------------------------|
----------------------------------------------------|
----------------------------------------------------|


-----------------------2--------5-------------------|-------|
--0-----------3-------------------------------------|-------|
----------------------------------------------------|-------|
----------------------------------------------------|-------|
----------------------------------------------------|-------|
----------------------------------------------------|-------|


-----------2L----------------2--2-------------------|----------|
--------3--------------------------------3----------|----------|
--4-------------------------------------------------|--4-------|
----------------------------------------------------|----------|
----------------------------------------------------|----------|
----------------------------------------------------|----------|


-----------------------2--------5-------------------|
--0-----------3-------------------------------------|
----------------------------------------------------|
----------------------------------------------------|
----------------------------------------------------|
----------------------------------------------------|


--10----------10-------10L--|--10---|--10----------10-------10L--|--10---|----|
--10----------12-------12L--|--12---|--10----------12-------12L--|--12---|----|
--12----------12-------14L--|--14---|--12----------12-------14L--|--14---|----|
----------------------------|-------|----------------------------|-------|----|
----------------------------|-------|----------------------------|-------|----|
----------------------------|-------|----------------------------|-------|----|


-----------2L----------------2--2-------------------|----------|
--------3--------------------------------3----------|----------|
--4-------------------------------------------------|--4-------|
----------------------------------------------------|----------|
----------------------------------------------------|----------|
----------------------------------------------------|----------|


-----------------------2--------5-------------------|-------|
--------------3-------------------------------------|-------|
----------------------------------------------------|-------|
----------------------------------------------------|-------|
----------------------------------------------------|-------|
----------------------------------------------------|-------|


-----------2L----------------2--2-------------------|
--------3--------------------------------3----------|
--4-------------------------------------------------|
----------------------------------------------------|
----------------------------------------------------|
----------------------------------------------------|


--------------------------------2--------0----------|
----------------------------------------------------|
--4-------------------------------------------------|
----------------------------------------------------|
----------------------------------------------------|
----------------------------------------------------|


-----------------------2--------5-------------------|-------|
--0-----------3-------------------------------------|-------|
----------------------------------------------------|-------|
----------------------------------------------------|-------|
----------------------------------------------------|-------|
----------------------------------------------------|-------|


-----------2L----------------2--2-------------------|----------|
--------3--------------------------------3----------|----------|
--4-------------------------------------------------|--4-------|
----------------------------------------------------|----------|
----------------------------------------------------|----------|
----------------------------------------------------|----------|


-----------------------2--------5-------------------|
--0-----------3-------------------------------------|
----------------------------------------------------|
----------------------------------------------------|
----------------------------------------------------|
----------------------------------------------------|


--10----------10-------10L--|--10---|--10----------10-------10L--|--10---|
--10----------12-------12L--|--12---|--10----------12-------12L--|--12---|
--12----------12-------14L--|--14---|--12----------12-------14L--|--14---|
----------------------------|-------|----------------------------|-------|
----------------------------|-------|----------------------------|-------|
----------------------------|-------|----------------------------|-------|


--10----------10-------10L--|--10---|--10----------10-------10L--|--10---|
--10----------12-------12L--|--12---|--10----------12-------12L--|--12---|
--12----------12-------14L--|--14---|--12----------12-------14L--|--14---|
----------------------------|-------|----------------------------|-------|
----------------------------|-------|----------------------------|-------|
----------------------------|-------|----------------------------|-------|


--5--------5--------5--------5--------5--------5----|
--------3--------3--------3--------3--------3-------|
-----4--------4--------4--------4--------4----------|
----------------------------------------------------|
----------------------------------------------------|
------------------------------------------------