Gametabs
Home
Tabs
Random

Powell

Average rating: 5.000

2 ratings

Composer:

Tabber:

Style:

Instrument:

Created: August 18, 2013 at 12:00 AM

            Title: Powell - Rabite Forest
Album: Legend Of Mana
Tempo = 110


Capo 5

E |--------0h-1h-0-------------------------------------|
B |-----------------1-----------------------1----------|
G |--------------------0-----2--------0----------------|
D |--------------------------------3--------------0----|
A |----------------------------------------------------|
E |----------------------------------------------------|


----------------------------------------------------|
--------------------------------------------1-------|
--------------0-----2-----------0-----2--2-----2----|
-----0h-3--------------3-----3----------------------|
----------------------------------------------------|
----------------------------------------------------|


--------0h-1h-0-------------------------------------|
-----------------1-----------------------1----------|
--------------------0-----2--------0----------------|
--------------------------------3--------------0----|
----------------------------------------------------|
----------------------------------------------------|


----------------------------------------------------|
--------------------------------------------1-------|
--------------0-----2-----------0-----2--2-----2----|
-----0h-3--------------3-----3----------------------|
----------------------------------------------------|
----------------------------------------------------|


--------0h-1h-0-------------------------------------|
-----------------1-----------------------1----------|
--------------------0-----2--------0----------------|
--------------------------------3--------------0----|
----------------------------------------------------|
----------------------------------------------------|


----------------------------------------------------|
--------------------------------------------1-------|
--------------0-----2-----------0-----2--2-----2----|
-----0h-3--------------3-----3----------------------|
----------------------------------------------------|
----------------------------------------------------|


--------0h-1h-0-------------------------------------|
-----------------1----------------------------------|
--------------------0h-3--2--------0-----3-----2----|
--------------------------------3-------------------|
----------------------------------------------------|
----------------------------------------------------|


---------------------------------------------------||
---------------------------------------------------||
--------------------0-----------------0-----3h-2--o||
--------0-----2--------2-----2h-3-----------------o||
--4--4---------------------------------------------||
---------------------------------------------------||


-----------1--3h-1-----------------------------0----|
--------3-----------3-----------0h-2-----3----------|
-----3-----------------3--2-------------------------|
----------------------------------------------------|
----------------------------------------------------|
----------------------------------------------------|


--------0-----1--------------0-----1-----1-----0----|
--3--------------------3----------------------------|
--------------------2-------------------------------|
----------------------------------------------------|
----------------------------------------------------|
----------------------------------------------------|


-----------1--3h-1-----------------------------0----|
--3-----3-----------3-----------0h-2-----3----------|
-----------------------3--2-------------------------|
----------------------------------------------------|
----------------------------------------------------|
----------------------------------------------------|


--1-----3-----5--------1-----3-----5-----5-----3----|
--------------------3-------------------------------|
----------------------------------------------------|
----------------------------------------------------|
----------------------------------------------------|
----------------------------------------------------|


--1--------0-----------------------0----------------|
--------------3L----------3-----------2-----3-------|
----------------------------------------------------|
----------------------------------------------------|
----------------------------------------------------|
----------------------------------------------------|


--3--------1-----------------------0----------------|
--------------3L----------3-----------2-----3-------|
----------------------------------------------------|
----------------------------------------------------|
----------------------------------------------------|
----------------------------------------------------|


--------1--0-----1--------0--3-----1--0--3-----1----|
-----------------------3----------------------------|
--2-------------------------------------------------|
----------------------------------------------------|
----------------------------------------------------|
----------------------------------------------------|


--0-----1--0-----3-----1--0--3-----1--0------------||
---------------------------------------------------||
--------------------------------------------------o||
--------------------------------------------------o||
---------------------------------------------------||
---------------------------------------------------||


--10-------10-------10-------10-------10------------|
----------------------------------------------------|
----------------------------------------------------|
----------------------------------------------------|
----------------------------------------------------|
----------------------------------------------------|


--10-------10-------10-------10-------10------------|
----------------------------------------------------|
----------------------------------------------------|
----------------------------------------------------|
----------------------------------------------------|
----------------------------------------------------|


--10-------10-------10-------10-------10------------|
----------------------------------------------------|
----------------------------------------------------|
----------------------------------------------------|
----------------------------------------------------|
----------------------------------------------------|


--10-------10-------10-------10----10--------------|||
---------------------------------------------------|||
--------------------------------------------------o|||
--------------------------------------------------o|||
---------------------------------------------------|||
---------------------------------------------------|||




Chords (Capo 5)

     S S E.  S S Q    S S S S S    S S E.  S S Q    S S S S S  
E||--1---0---1---0----0-1---0---|--1---0---1---0----0-1---3---|
B||--3---1---3---1----1-3---1---|--3---1---3---1----1-3---3---|
G||--2---2---2---2----2-2---2---|--2---2---2---2----2-2---2---|
D||-----------------------------|-----------------------------|
A||-----------------------------|-----------------------------|
E||-----------------------------|-----------------------------|


  S S E.  S S Q    S S S S S    S S E.  S S Q    S S S S S  
--1---0---1---0----0-1---0---|--1---0---1---0----0-1---3---|
--3---1---3---1----1-3---1---|--3---1---3---1----1-3---3---|
--2---2---2---2----2-2---2---|--2---2---2---2----2-2---2---|
-----------------------------|-----------------------------|
-----------------------------|-----------------------------|
-----------------------------|-----------------------------|


  S S E.  S S Q    S S S S S    S S E.  S S Q    S S S S S  
--1---0---1---0----0-1---0---|--1---0---1---0----0-1---3---|
--3---1---3---1----1-3---1---|--3---1---3---1----1-3---3---|
--2---2---2---2----2-2---2---|--2---2---2---2----2-2---2---|
-----------------------------|-----------------------------|
-----------------------------|-----------------------------|
-----------------------------|-----------------------------|


  S S E.  S S Q    S S S S S    S S E.  S S Q    S S S S S    
--1---0---1---0----0-1---0---|--1---0---1---0----0-1---3----||
--3---2---3---2----2-3---2---|--3---2---3---2----2-3---3----||
--2---2---2---2----2-2---2---|--2---2---2---2----2-2---2---*||
-----------------------------|-----------------------------*||
-----------------------------|------------------------------||
-----------------------------|------------------------------||


  E.  S S  S S S Q    Q       S S S S S S S E  E  E  S E   
----------------------3----|------------------------------|
------3-6p-3---6-5----5----|------1-L-3-L------1--3--3-1--|
--3----------3---2----2----|--2-L-----------2----------0--|
-----------------2---------|----3---3---3---3--3--3-------|
---------------------------|------------------------------|
---------------------------|------------------------------|


  E.  S S  S S S Q    Q       S S S S S S S E  E  E  S E   
----------------------3----|---------------------------0--|
------3-6p-3---6-5----5----|------1-L-3-L------1--3--3-1--|
--3----------3---2----2----|--2-L-----------2----------0--|
-----------------2---------|----3---3---3---3--3--3-------|
---------------------------|------------------------------|
---------------------------|------------------------------|


  S S S Q    S E.  S E  E     S S S Q    S E.  S E  E   
---------------------------|---------------------------|
--3-L---3----L-------3--L--|--3-L---3----L-------3-----|
------3-L------------3--L--|------3-L------------3--L--|
----3-L--------------3--3--|----5-L--------------5--5--|
---------------------------|---------------------------|
---------------------------|---------------------------|


  S S S S S S S S S S S S S S S S    S S S S S S S S S S S S S E  S    
----0-1---------------------------|----------------------------0--L--||
--2---------2-------2-------3-----|------3-2---3-----2-3-----2-------||
--------2-------3-2-----3-2---3-0-|--2-L-----------3-------2--------*||
----------------------------------|---------------------------------*||
----------------------------------|----------------------------------||
----------------------------------|----------------------------------||


  S S E.  S S Q    S S S S S    S S E.  S S Q    S S S S S  
--1---0---1---0----0-1---0---|--1---0---1---0----0-1---3---|
--3---1---3---1----1-3---1---|--3---1---3---1----1-3---3---|
--2---2---2---2----2-2---2---|--2---2---2---2----2-2---2---|
-----------------------------|-----------------------------|
-----------------------------|-----------------------------|
-----------------------------|-----------------------------|


  S S E.  S S Q    S S S S S    S S E.  S S Q    S Q       
--1---0---1---0----0-1---0---|--1---0---1---0----0-1-----||
--3---1---3---1----1-3---1---|--3---1---3---1----1-3-----||
--2---2---2---2----2-2---2---|--2---2---2---2----2-2----*||
-----------------------------|--------------------------*||
-----------------------------|---------------------------||
-----------------------------|---------------------------||

        
Comments

No comments yet