Gametabs
Home
Tabs
Random

The Color of the Summer Sky

Average rating: 5.000

1 ratings

Composer:

Tabber:

Style:

Instrument:

Created: October 03, 2007 at 12:00 AM

            The Color of the Summer Sky
Secret of Mana
Composed by Hiroki Kikuta

7/31/06

e------1---1-3-1-8---5-6-10-8-------------1---1-3-1-8---5-6-5-1
B--1-3--------------------------------1-3----------------------
G--------------------------------------------------------------
D--------------------------------------------------------------
A--------------------------------------------------------------
E--------------------------------------------------------------

e------1---1-3-1-8---5-6-8-10-8--------------1---1-3-1-8---5-6-5-1-3-1
B--1-3-----------------------------------1-3--------------------------
G---------------------------------------------------------------------
D---------------------------------------------------------------------
A---------------------------------------------------------------------
E---------------------------------------------------------------------

e--1-----1-0----------------------6-5-1---1-----0--------1-3-1
B------------3-1---3---1----------------3---------3-1--3------
G--------------------3----------------------------------------
D-------------------------------------------------------------
A-------------------------------------------------------------
E-------------------------------------------------------------

e--5--6-5-1--------1-6-5-1-----5--6-5-1--------1-10-8-6-1---3
B------------3-1-3-----------------------3-1-3------------3--
G------------------------------------------------------------
D------------------------------------------------------------
A------------------------------------------------------------
E------------------------------------------------------------

e--5--6-5-1--------1-6-5-1-----5--6-5-1--------1-10-8-6-5-3--
B------------3-1-3-----------------------3-1-3--------------1
G------------------------------------------------------------
D------------------------------------------------------------
A------------------------------------------------------------
E------------------------------------------------------------

        
Comments

@Someone Nostalgic (April 30, 2007 at 4:40 PM)

5--6-5-1


@Someone Nostalgic (April 30, 2007 at 4:42 PM)

I found the 5--6-5-1 part to be 5--6-8-1.


@Someone Nostalgic (April 30, 2007 at 4:42 PM)

Apart from that, great job. thanks :)


@Someone Nostalgic (April 30, 2007 at 4:43 PM)

Hmm.. I guess the 8 could be a part of the harmony, but I think it sounds better using that when playing solo. ^^


@Nick (April 30, 2007 at 8:51 PM)

Great game, great song, sounds good!


@SoundHyp (May 26, 2010 at 10:12 PM)

e----------------8---5-6-10-8-----------------------8---5-6-5-- B------6---6-8-6--------------------------6---6-8-6-----------6 G--5-7--------------------------------5-7---------------------- D-------------------------------------------------------------- A-------------------------------------------------------------- E--------------------------------------------------------------

e----------------8---5-6-8-10-8------------------------8---5-6-5------ B------6---6-8-6-----------------------------6---6-8-6-----------6-8-6 G--5-7-----------------------------------5-7-------------------------- D--------------------------------------------------------------------- A--------------------------------------------------------------------- E---------------------------------------------------------------------

e---------------------------------6-5------------------------- B--6-----6-5--------------------------6---6-----5--------6-8-6 G------------7-5---7---5----------------7---------7-5--7------ D--------------------8---------------------------------------- A------------------------------------------------------------- E-------------------------------------------------------------

e--5--6-8------------6-5-------5--6-8------------10-8-6------ B---------6--------6-----6------------6--------6--------6---8 G------------7-5-7-----------------------7-5-7------------7-- D------------------------------------------------------------ A------------------------------------------------------------ E------------------------------------------------------------

e--5--6-8------------6-5-------5--6-8------------10-8-6-5---- B---------6--------6-----6------------6--------6----------8-6 G------------7-5-7-----------------------7-5-7--------------- D------------------------------------------------------------ A------------------------------------------------------------ E------------------------------------------------------------

Least I found this easier to play for me, felt smoother. Well... Despite this messing up the timings I think you can jsut copy paste into notepad and it will show properly.