Gametabs
Home
Tabs
Random

Still of The Night (Pure Land)

Average rating: 5.000

2 ratings

Composer:

Tabber:

Style:

Instrument:

Created: January 08, 2021 at 12:00 AM

                  Secret of Mana - Still of The Night (Pure Land) GUITAR TAB
                           Song by Hiroki Kikuta

                        Arranged & tabbed by sjo89
                             On 08/01/2021

So I've been using this site for years and some of my favourite tabs are for Secret of Mana. 
I was shocked that one of my favourite songs - the music from the Pure Land (Still of the Night)
hadn't been submitted, so this is my very first attempt at a tab. 

I'm not that clued up when it comes to the time signature etc. and there may be one or two
*interesting* sounding chords, so apologies for that (any help/corrections/improvements are
welcome), but give the song a listen and hopefully you should be able to work it out from the
below. Cheers!

*Capo on the 5th fret

INTRO: Repeat x2

    W                  W                  W                  W
E |-0----------------|-0----------------|-0----------------|-0----------------|
B |-0----------------|-0----------------|-0----------------|-3----------------|
G |-0----------------|-2----------------|------------------|-4----------------|
D |------------------|------------------|-4----------------|------------------|
A |------------------|------------------|------------------|------------------|
E |------------------|------------------|------------------|------------------|

PART A:

    Q  Q  Q  Q         H  Q  Q            H  Q  Q            H.       Q
E |-0--------0-------|-2----------------|------------------|-0----------------|
B |-0--3--2----------|-0--3--2----------|-0--0--2----------|-3----------------|
G |-0----------------|-2----------------|-2----------------|-4--------2-------|
D |------------------|------------------|-4----------------|-5----------------|
A |------------------|------------------|------------------|------------------|
E |------------------|------------------|------------------|------------------|


    H        H         W                  W                  W
E |-0----------------|-0----------------|-0----------------|-0----------------|
B |-0----------------|-0----------------|-0----------------|-3----------------|
G |-0----------------|-2----------------|------------------|-4----------------|
D |-4--------2-------|------------------|-4----------------|------------------|
A |------------------|------------------|------------------|------------------|
E |------------------|------------------|------------------|------------------|


    Q  Q  Q  Q         H  Q  Q            H  Q  Q            H.       Q
E |-0--------0-------|-2----------------|-0----------------|-0----------------|
B |-0--3--2----------|-0--3--2----------|-2--0--2----------|-3----------------|
G |-0----------------|-2----------------|-2----------------|-4--------2-------|
D |------------------|------------------|-4----------------|-5----------------|
A |------------------|------------------|------------------|------------------|
E |------------------|------------------|------------------|------------------|


    H        H         W                  W                  W
E |-0----------------|-0----------------|-0----------------|-0----------------|
B |-0----------------|-0----------------|-0----------------|-3----------------|
G |-0----------------|-2----------------|------------------|-4----------------|
D |-4--------2-------|------------------|-4----------------|------------------|
A |------------------|------------------|------------------|------------------|
E |------------------|------------------|------------------|------------------|


PART B:

    Q  Q  Q  Q         Q  Q  Q  Q         W                  W
E |-1----------------|-1----------------|-1----------------|-1----------------|
B |-1----------------|-1--1--1--5-------|-5----------------|-1----------------|
G |-2--------2-------|-0----------------|-5----------------|-3----------------|
D |-2--3--3----------|------------------|------------------|------------------|
A |------------------|------------------|------------------|------------------|
E |------------------|------------------|------------------|------------------|


    Q  Q  Q  Q         Q  Q  Q  Q         W                  H     Q  Q
E |-1----------------|-1----------------|-1----------------|-1----------------|
B |-1----------------|-1--1--1--5-------|-5----------------|-1-----3--0-------|
G |-2--------2-------|-0----------------|-5----------------|-3----------------|
D |-2--3--3----------|------------------|------------------|------------------|
A |------------------|------------------|------------------|------------------|
E |------------------|------------------|------------------|------------------|



    H.       Q         W                  W                  W
E |-0----------------|-0----------------|-0----------------|-0----------------|
B |-0----------------|-0----------------|-0----------------|-3----------------|
G |-0----------------|-2----------------|------------------|-4----------------|
D |-5p-------4-------|------------------|-4----------------|------------------|
A |------------------|------------------|------------------|------------------|
E |------------------|------------------|------------------|------------------|


    Q  Q  Q  Q         W  Q  Q            H                  H       
E |-0----------------|-0----------------|-0----------------|-0----------------|
B |-0----------------|-0----------------|-0----------------|-3----------------|
G |-0----------------|-2----------------|------------------|-4----------------|
D |-2p-------0-------|------------------|-4----------------|------------------|
A |------------------|------------------|------------------|------------------|
E |------------------|------------------|------------------|------------------|

Back to PART A and repeat ad infinitum. 

        
Comments

@coobs (January 15, 2021 at 6:25 PM)

Seems ok to me! like you said, i was able to figure out how to play the tab after listening to the original, and it sounds great.