Gametabs
Home
Tabs
Random

Spirit of the Night

Average rating: No ratings

Composer:

Tabber:

Style:

Created: August 15, 2008 at 12:00 AM

            SPIRIT OF THE NIGHT

(From SECRET OF MANA (SEIKEN DENSETSU 2))

Tabbed by: Sho

Standard (E A D G B E)


 4/4
  Gtr I
  E E E E E E E E E. E S S S E E E E E E E E E E E E E E Q  E E E E E E
|-0---0-0-----0-0---------------------------------------------------0----|
|-1-1-----0-0-----1--------1-1-----------1-1---------1------0-----3-1-1--|
|---------0-------2--0-0-2---2-0-----2-2---------0-0-0----------0--------|
|--------------------------------3-2-0-------3-3-----2-0-2--2-2----------|
|-0------------------------------------------3----------------------0----|
|---------3-------1----------0-------------------------------------------|


  E E E E E E E. E S S S E E E E E E E E E E E E Q  Q  H
|-0-0-----0-0----------------------------------0-------------||-|
|-----0-0-----1--------1-1---------------0-3-0---3--0--2----o||-|
|-----0-------2--0-0-2---2-0---0-2---0-0-2-0---0-2--0--2-----||-|
|----------------------------3-2-3-3-----5-------------------||-|
|--------------------------------5---------------0-----0----o||-|
|-----3-------1----------0--------------------------3--------||-|


  E E E E E E Q  Q  E E Q  E E Q.   E H    E E E E E E E E E E E E E E E E Q  E E
|-1--------------1-------------0-----------0---------------1---------------1------|
|-1-----1-0------1--3-0--------0-----------0---------------1-----1-0-------1--3-0-|
|-2-0-2-----2----2------2--0---0-----------0---0---0-------2-0-2-----2-----2------|
|-3-----------2--3-----------3-2----0-2----2-4---4---4-2-0-3-----------2---0------|
|-3--------------3-------------2-----------2---------------3---------------0------|
|-1--------------1-------------0-----------0---------------1-----------1-0-0------|


     AmG C
  Q  E E Q.   E H    Q.   E Q  E E Q  Q  Q  Q  Q.   E H
|-1--0-3-0----3-0----3------3------0-----------0----3-5----|
|-1--1-3-1----3-1----3------3--1-0-2--0--3--0--2------2----|
|-2--2-0-0----0-0----0----0-0------2-----------2------2----|
|-0--2-0-2----0-2----0------0------2-----------2------2----|
|-0--0-2-3----2-3----2------2------0-----------0------0----|
|-0--0-3-0----3-0----3------3------0-----------0------0----|




--------------------------------------------------------------------------------


Duration Legend
---------------
W - whole; H - half; Q - quarter; E - 8th; S - 16th; T - 32nd; X - 64th; a - acciaccatura
+ - note tied to previous; . - note dotted; .. - note double dotted
Uncapitalized letters represent notes that are staccato (1/2 duration)
Irregular groupings are notated above the duration line
Duration letters will always appear directly above the note/fret number it represents the
duration for.  Duration letters with no fret number below them represent rests.  Multi-
bar rests are notated in the form Wxn, where n is the number of bars to rest for.  Low
melody durations appear below the staff

Tablature Legend
----------------
 h   - hammer-on
 p   - pull-off
 b   - bend
 pb  - pre-bend
 r   - bend release (if no number after the r, then release immediately)
 /\  - slide into or out of (from/to "nowhere")
 s   - legato slide
 S   - shift slide
 - natural harmonic
[n]  - artificial harmonic
n(n) - tapped harmonic
 ~   - vibrato
 tr  - trill
 T   - tap
 TP  - trem. picking
 PM  - palm muting
\n/  - tremolo bar dip; n = amount to dip
 \n  - tremolo bar down
 n/  - tremolo bar up
/n\  - tremolo bar inverted dip
 =   - hold bend; also acts as connecting device for hammers/pulls
 <> - volume swell (louder/softer)
 x   - on rhythm slash represents muted slash
 o   - on rhythm slash represents single note slash

Misc Legend
-----------
 |  - bar
||  - double bar
||o - repeat start
o|| - repeat end
*|  - double bar (ending)
 :  - bar (freetime)
 $  - Segno
 &  - Coda

        
Comments

No comments yet