Gametabs
Home
Tabs
Random

Spirit of the Night

Average rating: No ratings

Composer:

Tabber:

Style:

Instrument:

Created: October 03, 2007 at 12:00 AM

                                      Spirit Of Night (Banished)                            

bass
     W                   W                   W
G||--2----------------|--0----------------|-------------------|
D||-------------------|-------------------|--3----------------|
A||-------------------|-------------------|-------------------|
E||-------------------|-------------------|-------------------|

  Q    Q    Q    Q       W                   W
-------0--------------|-------------------|-------------------|
--2---------3----2----|--0----------------|-------------------|
----------------------|-------------------|--3----------------|
----------------------|-------------------|-------------------|

  W                   Q    Q    Q    Q       W
--0----------------|------------0----4----|--2----------------|
-------------------|--2----4--------------|-------------------|
-------------------|----------------------|-------------------|
-------------------|----------------------|-------------------|

  W                   W                   Q    Q    Q    Q
--0----------------|-------------------|-------0--------------|
-------------------|--3----------------|--2---------3----2----|
-------------------|-------------------|----------------------|
-------------------|-------------------|----------------------|

  W                   Q    Q    Q    Q       H        H
-------------------|-------4----9----9----|--7--------4--------|
--0----------------|--5-------------------|--5-----------------|
-------------------|----------------------|--------------------|
-------------------|----------------------|--------------------|

  W                       W                    W
--6------------------||--14----------------|---L----------------|
--7----------------*-||--------------------|--------------------|
-------------------*-||--------------------|--------------------|
---------------------||--13----------------|---L----------------|

   W                   W                    W
--14----------------|--L----------------|--------------------|
--------------------|-------------------|--14----------------|
--------------------|-------------------|--------------------|
--13----------------|--L----------------|---0----------------|

  W                    W                   W
-------------------|--------------------|-------------------|
--L----------------|--14----------------|--L----------------|
-------------------|--------------------|-------------------|
--L----------------|---0----------------|--L----------------|

   W                   H         Q     Q        W
--14----------------|--L--------14-----L----|--14----------------|
--------------------|-----------------------|--------------------|
--------------------|-----------------------|--------------------|
--13----------------|--L--------13----12----|--10----------------|

   W                    W                   W
---L----------------|--12----------------|--L----------------|
--------------------|--------------------|-------------------|
--------------------|--------------------|-------------------|
---L----------------|---8----------------|--L----------------|

   W                   W                    W
--12----------------|--L----------------|--14----------------|
--------------------|-------------------|--------------------|
--------------------|-------------------|--------------------|
--10----------------|--L----------------|--12----------------|

  W                    W                   W
--L----------------|--14----------------|--L------------------||
-------------------|--------------------|-------------------*-||
-------------------|--------------------|-------------------*-||
--L----------------|--12----------------|--L------------------||

Duration Legend
---------------
W - whole
H - half
Q - quarter
E - 8th
S - 16th
T - 32nd
X - 64th
. - note dotted
|-n-|  - n-tuplets

        
Comments

No comments yet