Gametabs
Home
Tabs
Random

Spirit of the Night

Average rating: 5.000

2 ratings

Composer:

Tabber:

Style:

Instrument:

Created: June 14, 2009 at 12:00 AM

            Spirit of the Night ~ Banished From Photos Village
Secret of Mana
Composed by Hiroki Kikuta
Arranged by Maikoi


        PH      PH      PH      PH         PH      PH      PH      PH    
        Q       Q       Q       Q          Q       Q       Q       Q     
E||------------------<>12----<>12----|------------------<>12----<>12----|
B||--<>13----<>13--------------------|--<>12----<>12--------------------|
G||----------------------------------|----------------------------------|
D||----------------------------------|----------------------------------|
A||----------------------------------|----------------------------------|
E||----------------------------------|----------------------------------|


     PH      PH    PH      PH     PH    PH       PH      PH      PH      PH    
     Q       E     Q       E      E     E        Q       Q       Q       Q     
-------------------------------------------|----------------------------------|
-------------------------------------<>13--|----------------------------------|
--<>14----<>14--<>12----<>12h--<>14--------|--<>14----<>12--------------------|
-------------------------------------------|------------------<>15----<>14----|
-------------------------------------------|----------------------------------|
-------------------------------------------|----------------------------------|


     PH      PH      PH      PH         PH      PH      PH      PH    
     Q       Q       Q       Q          Q       Q       Q       Q     
----------------------------------|----------------------------------|
------------------<>13----<>13----|----------------------------------|
--<>14----<>14--------------------|------------------<>12----<>12----|
----------------------------------|--<>15----<>15--------------------|
----------------------------------|----------------------------------|
----------------------------------|----------------------------------|


     PH      PH      PH                                                     
     Q       Q       H           W                     Q    Q    Q    Q     
------------------------------|-------------------||-------------0----0----|
------------------------------|-------------------||-----------------------|
------------------------------|-------------------||*--0----0--------------|
--<>14----<>12----<>14--------|-------------------||*--2-------------------|
------------------------------|-------------------||---0-------------------|
------------------------------|-------------------||-----------------------|


  Q    Q    Q    Q       Q    E  Q    E   E  E     Q    Q    Q    Q     
------------0----0----|-------------------------|----------------------|
--0----0--------------|----------------------1--|----------------------|
--0-------------------|--2----2--0----0h--2-----|--2----0--------------|
--0-------------------|--3----------------------|--2---------3----2----|
----------------------|-------------------------|----------------------|
--3-------------------|--1----------------------|--0----3----1----0----|


  Q    Q    Q    Q       Q    Q    Q    Q       Q    Q    H         
----------------------|----------------------|---------------------|
------------1----1----|----------------------|---------------------|
--2----2--------------|------------0----0----|---------------------|
--3-------------------|--3----3--------------|--2----0----2--------|
--5-------------------|--3-------------------|--3------------------|
----------------------|----------------------|---------------------|


  Q    Q    Q    Q       Q    Q    Q    Q       Q    Q    Q    Q     
----------------------|------------0----0----|------------0----0----|
-----------------0----|--1----1--------------|--0----0--------------|
------------0---------|--2-------------------|--0-------------------|
--2----4--------------|--2-------------------|--0-------------------|
-----------------2----|--0-------------------|----------------------|
--0----2----3---------|----------------------|--3-------------------|


  Q    E  Q    E   E  E     Q    Q    Q    Q       Q    Q    Q    Q     
-------------------------|-----------------3----|--1----1----3----3----|
----------------------1--|----------------------|----------------------|
--2----2--0----0h--2-----|--2----0--------------|--2-------------------|
--3----------------------|--2---------3----2----|--0-------------------|
-------------------------|----------------------|----------------------|
--1----------------------|--0----3----1----0----|----------------------|


  Q    Q    Q    Q       H        H           W                 
-----------------0----|--------------------|-------------------|
--0----3----1---------|--3--------0--------|--2----------------|
--2--------------2----|--0-----------------|--2----------------|
--2---------2---------|--0-----------------|--2----------------|
-------2--------------|--------------------|--0----------------|
--0-------------------|--3-----------------|-------------------|


  Q    Q    Q    Q       Q    Q    Q    Q       Q    E  Q    E   E  E   
------------0----0----|------------0----0----|-------------------------|
--1----1--------------|--0----0--------------|----------------------1--|
--2-------------------|--0-------------------|--2----2--0----0h--2-----|
----------------------|--0-------------------|--3----------------------|
--3-------------------|----------------------|--3----------------------|
----------------------|--3-------------------|-------------------------|


  Q    Q    Q    Q       Q    Q    Q    Q       Q    Q    Q    Q     
----------------------|----------------------|----------------------|
----------------------|------------1----1----|----------------------|
--2----0--------------|--2----2--------------|------------0----0----|
--2---------3----2----|--3-------------------|--3----3--------------|
----------------------|--0-------------------|--3-------------------|
--0----3----1----0----|----------------------|----------------------|


  Q    Q    H           Q    Q    Q    Q       Q    Q    Q    Q     
---------------------|----------------------|------------0----0----|
---------------------|-----------------0----|--1----1--------------|
---------------------|------------0---------|--2-------------------|
--2----0----2--------|--2----4--------------|----------------------|
--3------------------|-----------------2----|--3-------------------|
---------------------|--0----2----3---------|----------------------|


  Q    Q    Q    Q       Q    E  Q    E   E  E     Q    Q    Q    Q     
------------0----0----|-------------------------|----------------------|
--0----0--------------|----------------------1--|----------------------|
--0-------------------|--2----2--0----0h--2-----|--2----0---------0----|
--0-------------------|--3----------------------|--2---------3----2----|
----------------------|--3----------------------|----------------------|
--3-------------------|-------------------------|--0----3----1----0----|


  Q    Q    Q    Q       Q    Q    Q    Q       H        H         
----------------------|-----------------0----|--------------------|
----------------------|--0----3----1---------|--3--------0--------|
------------0----0----|--2--------------2----|--0-----------------|
--3----3--------------|--2---------2---------|--0-----------------|
--3-------------------|-------2--------------|--------------------|
----------------------|--0-------------------|--3-----------------|


  W                   Q    Q    Q    Q       Q    Q    H         
-------------------|----------------------|---------------------|
--2----------------|-----------------1----|--0------------------|
--2----------------|--2----0----2---------|--2----2-------------|
--2----------------|--3--------------3----|--2---------2--------|
--0----------------|----------------------|--0------------------|
-------------------|--1-------------------|---------------------|


  H        Q    Q       H        Q    Q       H.           Q     
---------------------|---------------------|--------------------|
-----------3----0----|-----------0---------|--------------------|
--2------------------|--2------------------|--------------------|
--3------------------|--3-------------3----|--2------------0----|
---------------------|--3------------------|--------------------|
---------------------|---------------------|--3-----------------|


  W                   Q    Q    Q    Q       Q    Q    Q    Q     
-------------------|--L-------------------|----------------------|
-------------------|----------------------|----------------------|
-------------------|------------0---------|--0-------------------|
--2----------------|-------4---------4----|-------4----2----0----|
--3----------------|----------------------|--0-------------------|
-------------------|----------------------|----------------------|


  Q    Q    Q    Q       Q    Q    Q    Q       H        Q    Q     
----------------------|----------------------|---------------------|
-----------------1----|--0-------------------|-----------3----0----|
--2----0----2---------|--2----2---------0----|--2------------------|
--3--------------3----|--2---------2---------|--3------------------|
----------------------|------------0---------|--3------------------|
--1-------------------|----------------------|--1------------------|


  H        Q    Q       H.           Q       H        Q    Q     
---------------------|--0-----------------|--0------------------|
-----------1----3----|--0------------3----|----------------0----|
--2------------------|--0-----------------|-----------2---------|
--2------------------|--2-----------------|---------------------|
--0------------------|--2-----------------|---------------------|
---------------------|--------------------|---------------------|


  H.           Q       H        Q    Q       H        H         
--------------------|---------------------|--5--------3--------|
--3-----------------|--3--------1----0----|--2--------0--------|
--0------------0----|--0------------------|--2-----------------|
--0-----------------|--0------------------|-----------0--------|
--------------------|--1------------------|--0-----------------|
--------------------|---------------------|--------------------|


                                                NH                 
  H        H           H.            Q          W                  
--7--------3--------|--5------------10----|--<>12----------------||
--5--------0--------|--5-------------8----|--<>12----------------||
--0-----------------|--6------------------|----------------------||
-----------2--------|--7------------------|----------------------||
--------------------|--0------------------|----------------------||
--------------------|---------------------|----------------------||




Duration Legend
---------------
W - whole
H - half
Q - quarter
E - 8th
S - 16th
T - 32nd
X - 64th
. - note dotted
|-n-|  - n-tuplets


Tablature Legend
----------------
L - tied note
x - dead note
g - grace note
(n) - ghost note
> - accentuded note
NH - natural harmonic
AH - artificial harmonic
TH - tapped harmonic
SH - semi harmonic
PH - pitch harmonic
h - hammer on
p - pull off
b - bend
br - bendRelease
pb - preBend
pbr - preBendRelease
brb - bendReleaseBend
\n/ - tremolo bar dip
\n - tremolo bar dive
-/n - tremolo bar Release up
/n\ - tremolo bar inverted dip
/n - tremolo bar return
-\n - tremolo bar Release down
S - shift slide
s - legato slide
/ -  slide into from below or out of upwards
\ -  slide into from above or out of downwards
~ - vibrato
W - wide vibrato
tr - trill
TP - tremolo picking
T - tapping
S - slap
P - pop
< - fade in
^ - brush up
v - brush down

        
Comments

@Tanimax (June 20, 2009 at 1:15 AM)

Just one thing... surely its not GG EE BB EE? to start with? I've always played it CC EE BB EE.

|-------12-12-------12-12-|
|-13-13-------12-12-------|
|-------------------------|
|-------------------------|
|-------------------------|
|-------------------------|

Or is that part of your arranging?