Gametabs
Home
Tabs
Random

Secret of the Arid Sands

Average rating: No ratings

Composer:

Tabber:

Style:

Instrument:

Created: March 09, 2009 at 12:00 AM

                       Secret of Mana - Secret of the Hot Sand BASS TAB
                        Song by Hiroki Kikuta

                Tabbed by auriplane ([email protected])
                            On Mar 9, 2009


Two versions here, one for drop-D tuning, and one for five-string
bass.  I play it on six, but I figured not everyone has a five so
I made the other one too.

Rest for 16 measures at the beginning.





             Five-string version, standard tuning.

    G |----------5-|7---------7-|5-----------|------------|
    D |------5-7---|------7-----|------5-----|3-----------|
    A |----5-------|------------|--------5---|------3-----|
    E |------------|------------|------------|------------|
    B |3-----------|------------|------------|------------|

    G |----------5-|7---------7-|5-----------|------------|
    D |------5-7---|------7-----|------5-----|3-----5-----|
    A |----5-------|------------|--------5---|----------3-|
    E |------------|------------|------------|------------|
    B |3-----------|------------|------------|------------|

    G |----------5-|7---------7-|5-----------|------------|
    D |------5-7---|------7-----|------5-----|3-----------|
    A |----5-------|------------|--------5---|------3-----|
    E |------------|------------|------------|------------|
    B |3-----------|------------|------------|------------|

    G |----------5-|7---------7-|5-----------|----------7-|
    D |------5-7---|------7-----|------5-----|------7-----|
    A |----5-------|------------|--------5---|7-----------|
    E |------------|------------|------------|------------|
    B |3-----------|------------|------------|------------|

    G |9-----------|9---7-------|------------|------------|
    D |------------|--------7---|------------|------------|
    A |------------|------------|7-----------|------------|
    E |------------|------------|------------|0-----------|
    B |------------|------------|------------|------------|


             Four-string version, Drop-D tuning.

    G |----------5-|7---------7-|5-----------|------------|
    D |----0-5-7---|------7-----|------5-0---|3-----------|
    A |------------|------------|------------|------3-----|
    D |0-----------|------------|------------|------------|

    G |----------5-|7---------7-|5-----------|------------|
    D |----0-5-7---|------7-----|------5-0---|3-----5-----|
    A |------------|------------|------------|----------3-|
    D |0-----------|------------|------------|------------|

    G |----------5-|7---------7-|5-----------|------------|
    D |----0-5-7---|------7-----|------5-0---|3-----------|
    A |------------|------------|------------|------3-----|
    D |0-----------|------------|------------|------------|

    G |----------5-|7---------7-|5-----------|----------7-|
    D |----0-5-7---|------7-----|------5-0---|------7-----|
    A |------------|------------|------------|7-----------|
    D |0-----------|------------|------------|------------|

    G |9-----------|9---7-------|------------|------------|
    D |------------|--------7---|------------|------------|
    A |------------|------------|7-----------|------------|
    D |------------|------------|------------|2-----------|

        
Comments

@BacardiBreezer (September 23, 2010 at 12:10 AM)

Is there any way you could do this for guitar? I love this song...


@BacardiBreezer (September 23, 2010 at 12:10 PM)

Yes :) that would be great!