Gametabs
Home
Tabs
Random

Mystic Invasion

Average rating: 4.000

1 ratings

Composer:

Tabber:

Style:

Created: August 20, 2008 at 12:00 AM

            Secret of Mana - Mystic Invasion

I'm not sure if this the correct title of this song, 
but this is the song you hear when you enter one of 
the underground areas. I tabbed this one mostly in 
position, so it'll be easier to play. Be sure to check 
out the accompanying video for this tune. Enjoy

e----------------3------------------------3----------
B-3-----5-3--------5-------3-----5-3--------5--------
G---5--------5-2-------------5--------5-2------------
D----------------------------------------------------
A----------------------------------------------------
E----------------------------------------------------
	
e------3-5-------3------------------3-5-------3--------5-
B-6--6-----6---3---5-----------6--6-----6---3---5--------
G------------5-------5-2--0---------------5-------5-2----
D--------------------------------------------------------
A--------------------------------------------------------
E--------------------------------------------------------

	The song repeats from here, so play it til' you pass out. 

        
Comments

@TrangOul (August 20, 2008 at 9:38 AM)

Sounds abit off to me, but I think I recognized it. The official title is "The Holy Intruder".


@SyyLux (September 27, 2010 at 10:49 AM)

e--------------------3------ B-3-----5-3--------------5-- G---5------------2---------- D-------------5------------- A--------------------------- E---------------------------

that is correct... like this it sounds much better and some other parts are off too ^^

but otherwise its great