Gametabs
Home
Tabs
Random

Meridian Dance

Average rating: 5.000

2 ratings

Composer:

Tabber:

Style:

Instrument:

Created: October 03, 2007 at 12:00 AM

            #----------------------------------PLEASE NOTE---------------------------------#
#This file is the author's own work and represents their interpretation of the #
#song. You may only use this file for private study, scholarship, or research. #
#------------------------------------------------------------------------------##

                                 MERIDIAN DANCE

Gtr I (E A D G B E) - 'Untitled'

  Q=165
 4/4
  Gtr I
   S  S  S  S  S  S  S  S  S  S  S  S  S  S  S  S
|-21-16----------------16-21-16----------------16-|
|-------19----------19----------19----------19----|
|----------18-16-18----------------18-16-18-------|
|-------------------------------------------------|
|-------------------------------------------------|
|-------------------------------------------------|

   S  S  S  S  S  S  S  S  S  S  S  S  S  S  S  S
|-21-16----------------16-21-16----------------16--|
|-------19----------19----------19----------19-----|
|----------18-16-18----------------18-16-18--------|
|--------------------------------------------------|
|--------------------------------------------------|
|--------------------------------------------------|

   S  S  S  S  S  S  S  S  S  S  S  S  S  S  S  S
|-22-17----------------17-22-17----------------17-|
|-------20----------20----------20----------20----|
|----------19-17-19----------------19-17-19-------|
|-------------------------------------------------|
|-------------------------------------------------|
|-------------------------------------------------|

   S  S  S  S  S  S  S  S  S  S  S  S  S  S  S  S
|-22-17----------------17-22-17----------------17-|
|-------20----------20----------20----------20----|
|----------19-17-19----------------19-17-19-------|
|-------------------------------------------------|
|-------------------------------------------------|
|-------------------------------------------------|

   S  S  S E.  S  S  S  S  S S  S  S  S S
|-16-16-16----16-16-16-16-16---17-17-17---|
|-16-16-16----16-16-16-16-16---17-17-17---|
|-----------------------------------------|
|-----------------------------------------|
|-----------------------------------------|
|-----------------------------------------|

  E  S  S  S  S  S S  S  S  S E.  S  S
|---17-17-17-17-17---18-18-18----18-18-|
|---17-17-17-17-17---18-18-18----18-18-|
|--------------------------------------|
|--------------------------------------|
|--------------------------------------|
|--------------------------------------|

   S  S  S S  Q   Q   Q     +W
|-18-18-18---19--19--20--|-(20)----|
|-18-18-18---19--19--20--|-(20)----|
|------------------------|----------|
|------------------------|----------|
|------------------------|----------|
|------------------------|----------|

     W           +Q    Q   E  E  Q
||------------|---------------------|
||o-----------|-------13--12--------|
||--14--------|-(14)---------14-12--|
||------------|---------------------|
||o-----------|---------------------|
||------------|---------------------|

   Q.    S  S  H       +H      Q   Q
|-------------------|-----------------|
|-12----------------|---------12--13--|
|-------14p12-14----|-(14)------------|
|-------------------|-----------------|
|-------------------|-----------------|
|-------------------|-----------------|

   W           +Q    Q   E  E  Q
|-----------|-------13--12--------|
|-15--------|-(15)---------15-13--|
|-----------|---------------------|
|-----------|---------------------|
|-----------|---------------------|
|-----------|---------------------|

   Q.    S  S  H       +W
|-------------------|----------||
|-12----------------|---------o||
|-------14p12-14----|-(14)-----||
|-------------------|----------||
|-------------------|---------o||
|-------------------|----------||

   Q.    Q   E  E  E    Q   Q   Q   Q
|-15--------12-13----|-----------------|
|-------15--------15-|-13--15--16--13--|
|--------------------|-----------------|
|--------------------|-----------------|
|--------------------|-----------------|
|--------------------|-----------------|

   Q.    Q   E  Q     Q   Q   Q   Q
|------------------|-----------------|
|-14---------------|-----------------|
|------------------|-----13--15------|
|-------13--13-15--|-16----------16--|
|------------------|-----------------|
|------------------|-----------------|

   S  S  S  S E  S  S  S  S E  S  S  S  S   E  S  S  S  S E  Q   +Q
|---------------15-15-15-15---17-17-17-17-|---18-18-18-18---20--(20)--|
|-18-18-18-18-----------------------------|----------------------------|
|-----------------------------------------|----------------------------|
|-----------------------------------------|----------------------------|
|-----------------------------------------|----------------------------|
|-----------------------------------------|----------------------------|

     S  S  S  S  S  S  S E  S  S  S  S E  S
||------------------------------------------|
||o----------14p13---------16-14-13------14-|
||-----13-15-------13-15------------15------|
||--15--------------------------------------|
||o-----------------------------------------|
||------------------------------------------|

   S  S  S E  S  S  S  S E  S  S  S  S  S
|--------------------------16-------------|
|-13---------16-14-13---------16-14-13----|
|----13-15------------15---------------13-|
|-----------------------------------------|
|-----------------------------------------|
|-----------------------------------------|

   S  S  S  S  S  S  S E  S  S  S  S E  S
|-----------------------------------------|
|----------14p13---------16-14-13------14-|
|----13-15-------13-15------------15------|
|-15--------------------------------------|
|-----------------------------------------|
|-----------------------------------------|

   S  S  S E  S  S  S  S E  S  S  S  S S
|--------------------------16-------------||
|-13---------16-14-13---------14-13------o||
|----13-15------------15------------15----||
|-----------------------------------------||
|----------------------------------------o||
|-----------------------------------------||

     Q   E  Q   E  Q     +Q    Q   Q   Q
||-------------18-----|-------------------|
||o-18--16-18-----16--|-(16)--18--14--16--|
||--------------------|-------------------|
||--------------------|-------------------|
||o-------------------|-------------------|
||--------------------|-------------------|

   Q   E  H     +E     +H.       E  E
|-------------------|-----------------|
|-18-----18----(18)-|-(18)------------|
|-----15------------|-----------15-17-|
|-------------------|-----------------|
|-------------------|-----------------|
|-------------------|-----------------|

   Q.    Q.    Q     Q   E  Q   E  Q
|-----------------|-------------------|
|-------16----18--|-------------------|
|-18--------------|-17--18-17--15-----|
|-----------------|---------------18--|
|-----------------|-------------------|
|-----------------|-------------------|

   Q   E  Q   E  Q     +W
|-------------------|----------||
|-------------------|---------o||
|-----15-17-----15--|-(15)-----||
|-18---------18-----|----------||
|-------------------|---------o||
|-------------------|----------||

     Q   E  Q   E  Q     Q   E  Q   E  Q
||--------------------|-------------------|
||o-14--13-14--16-13--|-14--13--------18--|
||--------------------|--------15--15-----|
||--------------------|-------------------|
||o-------------------|-------------------|
||--------------------|-------------------|

   W           +W
|-----------|----------||
|-18--------|-(18)----o||
|-----------|----------||
|-----------|----------||
|-----------|---------o||
|-----------|----------||

   Q   E  Q   E  Q     +W
|-21--19------------|---------|
|--------19--21-----|---------|
|---------------18--|-(18)----|
|-------------------|---------|
|-------------------|---------|
|-------------------|---------|

   Q   E  Q   E  Q     +W
|-------------------|---------|
|-17--16-14-----14--|-(14)----|
|------------16-----|---------|
|-------------------|---------|
|-------------------|---------|
|-------------------|---------|

   Q.    S  S  H       +Q.    S  S  Q   Q
|-11----------------|----------------------|
|-------14p12-14----|-(14)---12p11-12------|
|-------------------|------------------13--|
|-------------------|----------------------|
|-------------------|----------------------|
|-------------------|----------------------|

   Q   Q   Q  Q    H     H
|----------------|------------|
|-11--12---------|------------|
|---------11--9--|------------|
|----------------|-9----11----|
|----------------|------------|
|----------------|------------|

   H.       +E   S  S    W
|------------------16-|-21----*|
|---------------19----|-------*|
|---------------------|-------*|
|-13-------(13)-------|-------*|
|---------------------|-------*|
|---------------------|-------*|

        
Comments

@SyyLux (September 27, 2010 at 9:52 AM)

I love this theme.., takes much time to learn.. but i will... ^^ all is correct i just took some parts and tested them... so i think i will post a link if i finished it and made a video ^^ so thanks for making this AWESOME... I JUST LOVE IT.. THANKS cry sniff