Gametabs
Home
Tabs
Random

Danger

Average rating: 5.000

4 ratings

Composer:

Tabber:

Style:

Instrument:

Created: October 08, 2008 at 12:00 AM

                                   Secret of Mana - Danger TAB
                          Song by Hiroku Kikuta

                 Tabbed by auriplane ([email protected])
                   For Three Guitars & Six-String Bass

This is the SoM boss battle song, for three guitars and six-string
bass.  I divided it into sections labeled A-H, and put the seek time
for each section (based on the OST).  

The whole song is 182 bpm.  When I first listened, I thought it slowed
for part D, but it's actually just a really odd rhythm.  The time sigs
do change quite a bit, so I marked those.

This is mostly a transcription, but you could say it's a little bit of
an arrangement, since I tried to fit all the important notes onto just
four instruments instead of seven plus drums.  I kept it as close as I
could though, without making it for six guitars :-)  A few things are
transposed an octave, as well.

Part C on bass is not a bass part at all, but goes to the crazy weird
percussion--distorted steel drums or something?  If you don't want to
play that on bass, then skip that part, 'cause there's no actual bass
part there.  (Also I fudged it a little to fit the bass's range.)

This is the most effort I've put into a tab, and I'm proud of it, but
I'd love any corrections.  This file's gotten pretty huge, and I've
tried to check everything, but I probably missed something.  Enjoy!



                               1ST GUITAR
        [A]     Repeat 2x:                             0:00.0 - 0:42.1

e |8-7-6-5-----8-7-|6-5-----8-7-6-5-|----4-------5---|----6-------7---|
B |----------------|----------------|----------------|----------------|
G |--------6-------|----6-----------|5-------6-------|7-------8-------|
D |----------------|----------------|----------------|----------------|
A |----------------|----------------|----------------|----------------|
E |----------------|----------------|----------------|----------------|

e |8-7-6-5-----8-7-|6-5-----8-7-6-5-|----4-------5---|----6-----------|
B |----------------|----------------|----------------|----------------|
G |--------6-------|----6-----------|5-------6-------|7-------8-------|
D |----------------|----------------|----------------|----------------|
A |----------------|----------------|----------------|----------------|
E |----------------|----------------|----------------|----------------|

e |8-7-6-5-----8-7-|6-5-----8-7-6-5-|----4-------5---|----6-------7---|
B |----------------|----------------|----------------|----------------|
G |--------6-------|----6-----------|5-------6-------|7-------8-------|
D |----------------|----------------|----------------|----------------|
A |----------------|----------------|----------------|----------------|
E |----------------|----------------|----------------|----------------|

e |8-7-6-5-----8-7-|6-5-----8-7-6-5-|----4-------5---|----6-------7---|
B |----------------|----------------|----------------|----------------|
G |--------6-------|----6-----------|5-------6-------|7-------8-------|
D |----------------|----------------|----------------|----------------|
A |----------------|----------------|----------------|----------------|
E |----------------|----------------|----------------|----------------|

e |----------------|----------------|----------------|----------------|
B |10----------10--|--------10------|----10----------/13------13------|
G |7-----------7---|--------7-------|----7-----------/10------10------|
D |7-----------7---|--------7-------|----7-----------/10------10------|
A |----------------|----------------|----------------|----------------|
E |----------------|----------------|----------------|----------------|

e |----------------|----------------|----------------|----------------|
B |10----------10--|--------10------|----10----------/13------13------|
G |7-----------7---|--------7-------|----7-----------/10------10------|
D |7-----------7---|--------7-------|----7-----------/10------10------|
A |----------------|----------------|----------------|----------------|
E |----------------|----------------|----------------|----------------|

e |----------------|----------------|----------------|----------------|
B |10----------10--|--------10------|----10----------/13------13------|
G |7-----------7---|--------7-------|----7-----------/10------10------|
D |7-----------7---|--------7-------|----7-----------/10------10------|
A |----------------|----------------|----------------|----------------|
E |----------------|----------------|----------------|----------------|

e |----------------|----------------|----------------|----------------|
B |10----------10--|--------10------|----10----------/13------13------|
G |7-----------7---|--------7-------|----7-----------/10------10------|
D |7-----------7---|--------7-------|----7-----------/10------10------|
A |----------------|----------------|----------------|----------------|
E |----------------|----------------|----------------|----------------|

        [B]     No repeat:                             0:42.1 - 0:52.7

e |14------13------|17--------------|----------------|16--------------|
B |----------------|--------17------|16------15------|--------14------|
G |----------------|----------------|----------------|----------------|
D |----------------|----------------|----------------|----------------|
A |----------------|----------------|----------------|----------------|
E |----------------|----------------|----------------|----------------|

e |----------------|14--------------|----------------|13------------12|
B |----------------|----------------|----------------|------------13--|
G |17------16------|--------15------|14------13------|--------1215----|
D |----------------|----------------|----------------|----------------|
A |----------------|----------------|----------------|----------------|
E |----------------|----------------|----------------|----------------|

e |14------13------|17--------------|----------------|16--------------|
B |----------------|--------17------|16------15------|--------14------|
G |----------------|----------------|----------------|----------------|
D |----------------|----------------|----------------|----------------|
A |----------------|----------------|----------------|----------------|
E |----------------|----------------|----------------|----------------|

e |----------------|14--------------|----------------|1211109---------|
B |13------12------|--------11------|10------9-------|--------13121110|
G |----------------|----------------|----------------|----------------|
D |----------------|----------------|----------------|----------------|
A |----------------|----------------|----------------|----------------|
E |----------------|----------------|----------------|----------------|

        [C]     Repeat 2x:                             0:52.7 - 1:08.5
   7/4
e |------------|------------|------------|------------|--------|
B |11------10--|11------10--|11------10--|11------10--|11------|
G |9-------8---|9-------8---|9-------8---|9-------8---|9-------|
D |------------|------------|------------|------------|--------|
A |------------|------------|------------|------------|--------|
E |------------|------------|------------|------------|--------|

   6/4
e |9---------------|----------------|----------------|
B |8---------------|----------------|----------------|
G |----------------|----------------|----------------|
D |----------------|----------------|----------------|
A |----------------|----------------|----------------|
E |----------------|----------------|----------------|

   7/4
e |------------|------------|------------|------------|--------|
B |11------10--|11------10--|11------10--|11------10--|11------|
G |9-------8---|9-------8---|9-------8---|9-------8---|9-------|
D |------------|------------|------------|------------|--------|
A |------------|------------|------------|------------|--------|
E |------------|------------|------------|------------|--------|

   4/4
e |10--------------|----------------|
B |9---------------|----------------|
G |----------------|----------------|
D |----------------|----------------|
A |----------------|----------------|
E |----------------|----------------|

        [D]     No repeat:           1:08.5 - 1:13.8

    The rhythm is tricky here.  I can't do it without counting,
    because I naturally play with the drums, rather than against them.
    So, I marked the way I count it:
    
        1   2   3    triplets
        1     2      eighths
        1  &  2  &   sixteenths.

    Also, since you play against the drums, I tabbed the drums
    underneath (B&S = Bass & Snare), only in the first guitar part.
    It's kinda important since you need to listen to the drums, but
    your rhythm is different.  

e |17--------------16------|--------14--13----------|
B |----17--16--15------15--|------------------------|
G |------------------------|17--16----------15--14--|
D |------------------------|------------------------|
A |------------------------|------------------------|
E |------------------------|------------------------|
   1   2   3   1   2   3    1   2   3   1   2   3
S |------------o-----------|------------o-----------|
B |------------------------|o-----------------------|
   1           1            1           1

e |------------------------|------------------------|
B |------------------------|------------------------|
G |13----------------------|--------14--------------|
D |------------------------|------------------------|
A |------------------------|------------------------|
E |------------------------|------------------------|
   1           1            1   2   3   1
S |------------o-----------|------------------------|
B |o---o---o---------------|------------o---o---o---|
   1   2   3   1            1           1   2   3

e |------------------------|------------------------|
B |---------------11-------|------------------------|
G |------------------------|------------------------|
D |------------------------|------------------------|
A |------------------------|------------------------|
E |------------------------|------------------------|
   1     2     1  &  2      1     2     1     2
S |------------------------|------------------------|
B |------------------o-----|------------------------|
   1     2     1     2      1     2     1     2

e |------------------------|------------------------|
B |12----------------------|--------13------14------|
G |------------------------|------------------------|
D |------------------------|------------------------|
A |------------------------|------------------------|
E |------------------------|------------------------|
   1           1            1   2   3   1   2   3
S |------------------------|------o-----------------|
B |o---o---o---------------|------------------o-----|
   1   2   3   1            1     2     1     2

        [E]     Repeat 2x:                             1:13.8 - 1:34.9

e |------------13--|----------------|----------------|----------------|
B |15------13------|15--------------|----------------|----------------|
G |----------------|--------12------|14------15------|14--------------|
D |----------------|----------------|----------------|--------15------|
A |----------------|----------------|----------------|----------------|
E |----------------|----------------|----------------|----------------|
                                                               
e |----------------|----------------|----------------|----------------|
B |----------------|----------------|----------------|----------------|
G |----------------|12------14------|12--------------|----------------|
D |12-----14---15--|----------------|----15--14--12--|--------12--15--|
A |----------------|----------------|----------------|15--13----------|
E |----------------|----------------|----------------|----------------|
                                                               
e |----------------|----------------|----------------|----------------|
B |----------------|----------------|------------13--|----------------|
G |12--------------|----------------|--------12------|14------12------|
D |--------15--14--|15--------------|14--------------|----------------|
A |----------------|----------------|----------------|----------------|
E |----------------|----------------|----------------|----------------|
                                                               
e |----------------|----------------|----------------|----------------|
B |----------------|----------------|13----------15--|15--------------|
G |----------------|----------------|----------------|----------------|
D |14----------15--|15--------------|----------------|----------------|
A |----------------|----------------|----------------|----------------|
E |----------------|----------------|----------------|----------------|

        [F]     Repeat 2x:                             1:34.9 - 1:45.4

   Palm mute this section.
e |--------10--12--|--------12------|10--------------|----------------|
B |----------------|13--------------|----13--11------|--------11--10--|
G |12--------------|----12----------|------------10--|----12----------|
D |----10----------|------------10--|----------------|----------------|
A |----------------|----------------|----------------|----------------|
E |----------------|----------------|----------------|----------------|

e |--------10--12--|--------15--12--|13--12--10------|----------------|
B |----------------|13--------------|----------------|--------11--10--|
G |12--------------|----12----------|------------10--|----12----------|
D |----10----------|----------------|----------------|----------------|
A |----------------|----------------|----------------|----------------|
E |----------------|----------------|----------------|----------------|

   This section is in 7/4 time, but I'm dividing it up by the accents
   because it's way easier to internalize that way.

        [G]     Repeat 4x:                     1:45.4 - 1:54.7
   3/8          4/8              3/8          4/8
e |------------|----------------|------------|----------------|
B |------------|----------------|------------|----------------|
G |9-----------|----------------|9-----------|--------12------|
D |9---12------|12------12------|9-----------|12--10--10--10--|
A |----12--12--|12------12--12--|--------12--|12--10------10--|
E |--------12--|------------12--|--------12--|----------------|

                                              
        [H]     No repeat:                        1:54.7 - 2:01.1
   5/4                            T T T
e |------------------------|------------------------|------------|
B |13----12----------15----|------13151312----------|------15----|
G |------------14----------|------------------12----|------------|
D |------------------------|------------------------|------------|
A |------------------------|------------------------|------------|
E |------------------------|------------------------|------------|
                                  T T T
e |13----12----------15----|------13151312----------|------17----|
B |------------15----------|------------------13----|------------|
G |------------------------|------------------------|------------|
D |------------------------|------------------------|------------|
A |------------------------|------------------------|------------|
E |------------------------|------------------------|------------|

e |19----------------------|------------------------|------------|
B |------------------------|------------------------|------------|
G |------------------------|------------------------|------------|
D |------------------------|------------------------|------------|
A |------------------------|------------------------|------------|
E |------------------------|------------------------|------------|

e |------------------------|21\15-------------------|------------|
B |------------------------|------------------------|------------|
G |------------------------|------------------------|------------|
D |------------------------|------------------------|------------|
A |------------------------|------------------------|------------|
E |------------------------|------------------------|------------|



                               2ND GUITAR
        [A]     Repeat 2x:                              0:00.0 - 0:42.1

e |----------------|----------------|----------------|----------------|
B |----------------|----------------|----------------|----------------|
G |----------------|----------------|----------------|----------------|
D |109-8-7-----109-|8-7-----109-8-7-|----6-------7---|----8-------9---|
A |----------------|----------------|----------------|----------------|
E |--------9-------|----9-----------|8-------9-------|10------11------|

e |----------------|----------------|----------------|----------------|
B |----------------|----------------|----------------|----------------|
G |----------------|----------------|----------------|----------------|
D |109-8-7-----109-|8-7-----109-8-7-|----6-------7---|----8-----------|
A |----------------|----------------|----------------|----------------|
E |--------9-------|----9-----------|8-------9-------|10------11------|

e |----------------|----------------|----------------|----------------|
B |----------------|----------------|----------------|----------------|
G |----------------|----------------|----------------|----------------|
D |109-8-7-----109-|8-7-----109-8-7-|----6-------7---|----8-------9---|
A |----------------|----------------|----------------|----------------|
E |--------9-------|----9-----------|8-------9-------|10------11------|

e |----------------|----------------|----------------|----------------|
B |----------------|----------------|----------------|--------6-7-8-9-|
G |----------------|----------------|----------------|6-7-8-9---------|
D |109-8-7-----109-|8-7-----109-8-7-|----6-------7---|----------------|
A |----------------|----------------|----------------|----------------|
E |--------9-------|----9-----------|8-------9-------|----------------|

e |----------------|----------------|----------------|----------------|
B |10--------------|----------------|----------------|----------------|
G |9---------------|----------------|--------6-6-----|----------------|
D |7---8-8-7-------|8-8-7-------8-8-|7-------4-4-7---|10107---9-9-7---|
A |----6-6-5-------|6-6-5-------6-6-|5-----------5---|8-8-5---7-7-5---|
E |----------------|----------------|----------------|----------------|

e |----------------|----------------|----------------|----------------|
B |10--------------|----------------|----------------|----------------|
G |9---------------|----------------|--------6-6-----|----------------|
D |7---8-8-7-------|8-8-7-------8-8-|7-------4-4-7---|10107---9-9-7---|
A |----6-6-5-------|6-6-5-------6-6-|5-----------5---|8-8-5---7-7-5---|
E |----------------|----------------|----------------|----------------|

e |----------------|----------------|----------------|----------------|
B |10--------------|----------------|----------------|----------------|
G |9---------------|----------------|--------6-6-----|----------------|
D |7---8-8-7-------|8-8-7-------8-8-|7-------4-4-7---|10107---9-9-7---|
A |----6-6-5-------|6-6-5-------6-6-|5-----------5---|8-8-5---7-7-5---|
E |----------------|----------------|----------------|----------------|

e |----------------|----------------|----------------|----------------|
B |10--------------|----------------|----------------|----------------|
G |9---------------|----------------|--------6-6-----|----------------|
D |7---8-8-7-------|8-8-7-------8-8-|7-------4-4-7---|10107---9-9-7---|
A |----6-6-5-------|6-6-5-------6-6-|5-----------5---|8-8-5---7-7-5---|
E |----------------|----------------|----------------|----------------|

        [B]     No repeat:                             0:42.1 - 0:52.7

e |10------9-------|13--------------|----------------|12--------------|
B |----------------|--------13------|12------11------|--------10------|
G |----------------|----------------|----------------|----------------|
D |----------------|----------------|----------------|----------------|
A |----------------|----------------|----------------|----------------|
E |----------------|----------------|----------------|----------------|

e |----------------|10--------------|----------------|9-------------8-|
B |----------------|----------------|----------------|------------9---|
G |13------12------|--------11------|10------9-------|--------8-11----|
D |----------------|----------------|----------------|----------------|
A |----------------|----------------|----------------|----------------|
E |----------------|----------------|----------------|----------------|

e |10------9-------|13--------------|----------------|12--------------|
B |----------------|--------13------|12------11------|--------10------|
G |----------------|----------------|----------------|----------------|
D |----------------|----------------|----------------|----------------|
A |----------------|----------------|----------------|----------------|
E |----------------|----------------|----------------|----------------|

e |----------------|10--------------|----------------|----------------|
B |----------------|----------------|----------------|13121110--------|
G |13------12------|--------11------|10------9-------|--------13121110|
D |----------------|----------------|----------------|----------------|
A |----------------|----------------|----------------|----------------|
E |----------------|----------------|----------------|----------------|

        [C]     Repeat 2x:                      0:52.7 - 1:08.5
   7/4
e |------------|------------|------------|------------|--------|
B |------------|------------|------------|------------|--------|
G |------------|------------|------------|------------|--------|
D |12----------|10----------|12----------|10----------|12------|
A |------------|------------|------------|------------|--------|
E |------------|------------|------------|------------|--------|

   6/4
e |----------------|----------------|----------------|
B |----------------|----------------|----------------|
G |10--------------|----------------|----------------|
D |----------------|----------------|----------------|
A |----------------|----------------|----------------|
E |----------------|----------------|----------------|

   7/4
e |------------|------------|------------|------------|--------|
B |------------|------------|------------|------------|--------|
G |------------|------------|------------|------------|--------|
D |12----------|10----------|12----------|10----------|12------|
A |------------|------------|------------|------------|--------|
E |------------|------------|------------|------------|--------|

   4/4
e |----------------|----------------|
B |----------------|----------------|
G |13--------------|----------------|
D |----------------|----------------|
A |----------------|----------------|
E |----------------|----------------|

        [D]     No repeat:           1:08.5 - 1:13.8
   4/4
e |------------------------|------------------------|
B |10--------------9-------|--------7---------------|
G |----9---8---7-------7---|------------10----------|
D |------------------------|10--9-----------8---7---|
A |------------------------|------------------------|
E |------------------------|------------------------|
   1   2   3   1   2   3    1   2   3   1   2   3

e |------------------------|------------------------|
B |------------------------|------------------------|
G |------------------------|------------------------|
D |6-----------------------|--------7---------------|
A |------------------------|------------------------|
E |------------------------|------------------------|
   1           1            1   2   3   1

e |------------------------|------------------------|
B |------------------------|------------------------|
G |------------------------|------------------------|
D |---------------8--------|------------------------|
A |------------------------|------------------------|
E |------------------------|------------------------|
   1     2     1  &  2      1     2     1     2

e |------------------------|------------------------|
B |------------------------|------------------------|
G |------------------------|------------------------|
D |9-----------------------|--------10------11------|
A |------------------------|------------------------|
E |------------------------|------------------------|
   1           1            1   2   3   1   2   3

        [E]     Repeat 2x:                             1:13.8 - 1:34.9

e |------------8---|----------------|----------------|----------------|
B |10------8-------|10--------------|----------------|----------------|
G |----------------|--------9-------|7-------10------|9---------------|
D |----------------|----------------|----------------|--------10------|
A |----------------|----------------|----------------|----------------|
E |----------------|----------------|----------------|----------------|

e |----------------|----------------|----------------|----------------|
B |----------------|----------------|----------------|----------------|
G |------------7---|9---------------|----------------|----------------|
D |8-------10------|----10--7---10--|8---7-----------|------------7---|
A |----------------|----------------|--------10--8---|7-------8-------|
E |----------------|----------------|----------------|----10----------|

e |----------------|----------------|----------------|----------------|
B |----------------|----------------|----------------|----------------|
G |----------------|7-------9--7----|------------7---|----------------|
D |8-------7---10--|----------------|10------10------|10------7-------|
A |----------------|----------------|----------------|----------------|
E |----------------|----------------|----------------|----------------|

e |----------------|----------------|----------------|----------------|
B |----------------|----------------|----------------|----------------|
G |----------------|----------------|----------------|----------------|
D |------------7---|7---------------|10----------12--|12--------------|
A |10--------------|----------------|----------------|----------------|
E |----------------|----------------|----------------|----------------|
   
        [F]     Repeat 2x:                             1:34.9 - 1:45.4

   Palm mute this section.
e |----------------|----------------|----------------|----------------|
B |--------12--13--|--------13------|11--10----------|----------------|
G |----------------|12--------------|--------12------|--------10--10--|
D |10--------------|----10----------|------------10--|----12----------|
A |----10----------|------------10--|----------------|----------------|
E |----------------|----------------|----------------|----------------|

e |----------------|--------12------|10--------------|----------------|
B |--------12--13--|------------13--|----13--11------|----------------|
G |----------------|12--------------|----------------|--------12--10--|
D |10--------------|----10----------|------------10--|----12----------|
A |----10----------|----------------|----------------|----------------|
E |----------------|----------------|----------------|----------------|

        [G]     Repeat 4x:                             1:45.4 - 1:54.7

   3/8          4/8              3/8          4/8
e |------------|----------------|------------|----------------|
B |------------|----------------|------------|--------8-------|
G |9-----------|7---------------|9-----------|7-------5-------|
D |7-----------|5---------------|7-----------|5---------------|
A |------------|----------------|------------|----------------|
E |------------|----------------|------------|----------------|
                                              
        [H]     No repeat:                        1:54.7 - 2:01.1
   5/4                            T T T
e |------------------------|------------------------|------------|
B |------------------------|------------------------|------------|
G |------------------------|------------------------|------------|
D |10----9-----------12----|------1012109-----------|------12----|
A |------------12----------|------------------10----|------------|
E |------------------------|------------------------|------------|
                                  T T T
e |------------------------|------------------------|------------|
B |------------------------|------------------------|------------|
G |10----9-----------12----|------1012109-----------|------14----|
D |------------12----------|------------------10----|------------|
A |------------------------|------------------------|------------|
E |------------------------|------------------------|------------|
 
e |------------------------|------------------------|------------|
B |19----------------------|------------------------|------------|
G |------------------------|------------------------|------------|
D |------------------------|------------------------|------------|
A |------------------------|------------------------|------------|
E |------------------------|------------------------|------------|

e |------------------------|------------------------|------------|
B |------------------------|21\15-------------------|------------|
G |------------------------|------------------------|------------|
D |------------------------|------------------------|------------|
A |------------------------|------------------------|------------|
E |------------------------|------------------------|------------|



                               3RD GUITAR
        [A]     Repeat 2x:                         e |----------------|
                0:00.0 - 0:42.1                    B |--------6-7-8-9-|
                                                   G |6-7-8-9---------|
                                                   D |----------------|
          - Rest for 15 measures -                 A |----------------|
                                                   E |----------------|

e |----------------|----------------|----------------|----------------|
B |----------------|----------------|----------------|----------------|
G |9-----------9---|--------9-------|----9-----------|12------12------|
D |----------------|----------------|----------------|----------------|
A |----------------|----------------|----------------|----------------|
E |----------------|----------------|----------------|----------------|

e |----------------|----------------|----------------|----------------|
B |----------------|----------------|----------------|----------------|
G |9-----------9---|--------9-------|----9-----------|12------12------|
D |----------------|----------------|----------------|----------------|
A |----------------|----------------|----------------|----------------|
E |----------------|----------------|----------------|----------------|

e |----------------|----------------|----------------|----------------|
B |----------------|----------------|----------------|----------------|
G |9-----------9---|--------9-------|----9-----------|12------12------|
D |----------------|----------------|----------------|----------------|
A |----------------|----------------|----------------|----------------|
E |----------------|----------------|----------------|----------------|

e |----------------|----------------|----------------|----------------|
B |----------------|----------------|----------------|----------------|
G |9-----------9---|--------9-------|----9-----------|12------12------|
D |----------------|----------------|----------------|----------------|
A |----------------|----------------|----------------|----------------|
E |----------------|----------------|----------------|----------------|

        [B]     Repeat 2x:                             0:42.1 - 0:52.7

e |----3-4-7-----8-|9-----1011----12|131211--11109---|9-8-7---7-6-5-0-|
B |2-3-------6-7---|--8-9-----1011--|------12------9-|------8---------|
G |----------------|----------------|----------------|----------------|
D |----------------|----------------|----------------|----------------|
A |----------------|----------------|----------------|----------------|
E |----------------|----------------|----------------|----------------|

e |----3-4-7-----8-|9-----1011----13|151413--131211--|11109---9-8-7---|
B |3-4-------6-7---|--8-9-----1112--|------14------11|------10------8-|
G |----------------|----------------|----------------|----------------|
D |----------------|----------------|----------------|----------------|
A |----------------|----------------|----------------|----------------|
E |----------------|----------------|----------------|----------------|

        [C]     Repeat 2x:                      0:52.7 - 1:08.5
   7/4
e |------------|------------|------------|------------|--------|
B |------------|------------|------------|------------|--------|
G |13----------|11----------|13----------|11----------|13------|
D |------------|------------|------------|------------|--------|
A |------------|------------|------------|------------|--------|
E |------------|------------|------------|------------|--------|

   6/4
e |----------------|----------------|----------------|
B |12--------------|----------------|----------------|
G |----------------|----------------|----------------|
D |----------------|----------------|----------------|
A |----------------|----------------|----------------|
E |----------------|----------------|----------------|

   7/4
e |------------|------------|------------|------------|--------|
B |------------|------------|------------|------------|--------|
G |13----------|11----------|13----------|11----------|13------|
D |------------|------------|------------|------------|--------|
A |------------|------------|------------|------------|--------|
E |------------|------------|------------|------------|--------|

   4/4
e |----------------|----------------|
B |14--------------|----------------|
G |----------------|----------------|
D |----------------|----------------|
A |----------------|----------------|
E |----------------|----------------|

        [D]     No repeat:           1:08.5 - 1:13.8

e |----12--------------9---|8-----------------------|
B |10--------------9-------|--------7---------------|
G |--------8---------------|------------10----------|
D |------------12----------|----9-----------8---7---|
A |------------------------|------------------------|
E |------------------------|------------------------|
   1   2   3   1   2   3    1   2   3   1   2   3

e |------------------------|------------------------|
B |------------------------|------------------------|
G |------------------------|------------------------|
D |6-----------------------|--------7---------------|
A |------------------------|------------------------|
E |------------------------|------------------------|
   1           1            1   2   3   1

e |------------------------|------------------------|
B |------------------------|------------------------|
G |------------------------|------------------------|
D |---------------8--------|------------------------|
A |------------------------|------------------------|
E |------------------------|------------------------|
   1     2     1  &  2      1     2     1     2

e |------------------------|------------------------|
B |------------------------|------------5--6--7--9--|
G |5-----------------------|5--6--7--8--------------|
D |------------------------|------------------------|
A |------------------------|------------------------|
E |------------------------|------------------------|
   1           1            1  &  2  &  1  &  2  &

        [E]     Repeat 2x:                             1:13.8 - 1:34.9

e |----------------|----------------|----------------|--------5-------|
B |------------6---|----------------|----------------|8---------------|
G |7-------5-------|7---------------|5-------7-------|----------------|
D |----------------|--------5-------|----------------|----------------|
A |----------------|----------------|----------------|----------------|
E |----------------|----------------|----------------|----------------|

e |6-------5---8---|5---------------|--------5-------|----------------|
B |----------------|--------6-------|8---------------|--------6-------|
G |----------------|----------------|----------------|5---------------|
D |----------------|----------------|----------------|----------------|
A |----------------|----------------|----------------|----------------|
E |----------------|----------------|----------------|----------------|

e |----------------|----------------|------------5---|----------------|
B |----------------|----------------|--------5-------|6-------5-------|
G |7-----------5---|----------------|----------------|----------------|
D |--------5-------|7---------------|----------------|----------------|
A |----------------|----------------|----------------|----------------|
E |----------------|----------------|----------------|----------------|

e |----------------|----------------|8-----------10--|10--------------|
B |----------------|----------------|----------------|----------------|
G |5-----------7---|7---------------|----------------|----------------|
D |----------------|----------------|----------------|----------------|
A |----------------|----------------|----------------|----------------|
E |----------------|----------------|----------------|----------------|

        [F]     Repeat 2x:                             1:34.9 - 1:45.4

e |----------------|----------------|----------------|----------------|
B |----------------|----------------|----------------|----------------|
G |----------------|--------9-------|7---------------|----------------|
D |------------10--|----------------|----10--8---8---|----7---8---7---|
A |10--------------|----------------|----------------|----------------|
E |----------------|----------------|----------------|----------------|

e |----------------|----------------|----------------|----------------|
B |----------------|--------8-------|----------------|----------------|
G |----------------|----------------|10--9---7---7---|----9---10--7---|
D |------------10--|----------------|----------------|----------------|
A |10--------------|----------------|----------------|----------------|
E |----------------|----------------|----------------|----------------|

        [G]     No repeat:                     1:45.4 - 1:54.7

   3/8          4/8              3/8          4/8
e |------------|----------------|------------|----------------|
B |------------|----------------|------------|----------------|
G |------------|----------------|------------|----------------|
D |------------|----------------|------------|----------------|
A |------------|----------------|------------|----------------|
E |------------|----------------|------------|----------------|
                                              
e |------------|----------------|------------|----------------|
B |------------|----------------|------------|----------------|
G |------------|----------------|------------|----------------|
D |------------|----------------|------------|----------------|
A |------------|----------------|------------|----------------|
E |------------|----------------|------------|----------------|
   (Palm mute)
e |17----------|------------15--|17----------|--------15------|
B |----17--15--|--------15------|--------17--|15----------15--|
G |------------|14--------------|------------|----14----------|
D |------------|----------------|------------|----------------|
A |------------|----------------|------------|----------------|
E |------------|----------------|------------|----------------|
   (Stop muting)           
e |17----------|------------15--|17----------|--------15------|
B |----17--15--|--------15------|--------17--|15----------15--|
G |------------|14--------------|------------|----14----------|
D |------------|----------------|------------|----------------|
A |------------|----------------|------------|----------------|
E |------------|----------------|------------|----------------|

        [H]     No repeat:    1:54.7 - 2:01.1
   5/4
e |------------------------|------------------------|------------|
B |10----------------12----|------------------------|------------|
G |------------------------|------------------12----|------12----|
D |------------------------|------------------------|------------|
A |------------------------|------------------------|------------|
E |------------------------|------------------------|------------|
                                        
e |10----------------12----|------------------------|------------|
B |------------------------|------------------13----|------10----|
G |------------------------|------------------------|------------|
D |------------------------|------------------------|------------|
A |------------------------|------------------------|------------|
E |------------------------|------------------------|------------|

e |------------------------|------------------------|------------|
B |12----------------------|------------------------|------------|
G |------------------------|------------------------|------------|
D |------------------------|------------------------|------------|
A |------------------------|------------------------|------------|
E |------------------------|------------------------|------------|

e |------------------------|13----------------------|------------|
B |------------------------|------------------------|------------|
G |------------------------|------------------------|------------|
D |------------------------|------------------------|------------|
A |------------------------|------------------------|------------|
E |------------------------|------------------------|------------|




                            SIX-STRING BASS

        
        [A]     Repeat 2x:                         C |----------------|
                0:00.0 - 0:42.1                    G |------------0-1-|
                                                   D |--0-1-2-3-4-----|
                                                   A |4---------------|
          - Rest for 15 measures -                 E |----------------|
                                                   B |----------------|

C |----------------|----------------|----------------|0---0---0---0---|
G |----2-2-2---2---|2-2-2-------2-2-|2---2---2-2-2---|----------------|
D |----------------|----------------|----------------|----------------|
A |0---------------|--------0-------|----------------|----------------|
E |----------------|----------------|----------------|----------------|
B |----------------|----------------|----------------|----------------|

C |----------------|----------------|----------------|----------------|
G |----2-2-2---2---|2-2-2-------2-2-|2---2---2-2-2---|0---0---0---0---|
D |----------------|----------------|----------------|----------------|
A |0---------------|--------0-------|----------------|----------------|
E |----------------|----------------|----------------|----------------|
B |----------------|----------------|----------------|----------------|

C |----------------|----------------|----------------|0---0---0---0---|
G |----2-2-2---2---|2-2-2-------2-2-|2---2---2-2-2---|----------------|
D |----------------|----------------|----------------|----------------|
A |0---------------|--------0-------|----------------|----------------|
E |----------------|----------------|----------------|----------------|
B |----------------|----------------|----------------|----------------|

C |----------------|----------------|----------------|----------------|
G |----2-2-2---2---|2-2-2-------2-2-|2---2---2-2-2---|0---0---0---0---|
D |----------------|----------------|----------------|----------------|
A |0---------------|--------0-------|----------------|----------------|
E |----------------|----------------|----------------|----------------|
B |----------------|----------------|----------------|----------------|

        [B]     Repeat 2x:                             0:42.1 - 0:52.7

C |----------------|----------------|----------------|----------------|
G |----------------|----------------|----3-------3---|2---1-----------|
D |----5-------6---|----3-------5---|----------------|----------------|
A |----------------|----------------|1---------------|----------------|
E |3-------4-------|1-1-----3-------|--------3-3-----|--------2-2-----|
B |----------------|----------------|----------------|------------3---|

C |----------------|----------------|----------------|----------------|
G |----------------|----------------|----------------|----------------|
D |----5-------6---|----3-------5---|1-------0-------|0-0-----3-3-4---|
A |----------------|----------------|----------------|----------------|
E |3-------4-4-----|1-1-----3-------|----------------|----1-----------|
B |----------------|----------------|----3-------1---|----------------|

        [C]     Repeat 2x:                             0:52.7 - 1:08.5
   7/4
C |------------|------------|------------|------------|--------|
G |--------6---|--------5---|--------6---|--------5---|6-------|
D |----5-------|----4-------|----5-------|----4-------|--------|
A |4-----------|3-----------|4-----------|3-----------|--------|
E |------------|------------|------------|------------|--------|
B |------------|------------|------------|------------|--------|

   6/4
C |5-5-------------|----------------|----------------|
G |----4-4---------|----------------|----------------|
D |--------5-5-----|0-0-------------|----------------|
A |------------6-6-|----2-2-1-1-----|----------------|
E |----------------|------------3-3-|0-0-------------|
B |----------------|----------------|----2-2-1-1-0-0-|

   7/4
C |------------|------------|------------|------------|--------|
G |--------6---|--------5---|--------6---|--------5---|6-------|
D |----5-------|----4-------|----5-------|----4-------|--------|
A |4-----------|3-----------|4-----------|3-----------|--------|
E |------------|------------|------------|------------|--------|
B |------------|------------|------------|------------|--------|

   4/4
C |7-7-------------|----------------|
G |----8-8---------|----------------|
D |--------9-9-----|--------0-0-----|
A |------------9-9-|8-8-6-6---------|
E |----------------|------------6-6-|
B |----------------|----------------|

        [D]     No repeat:                             1:08.5 - 1:13.8
   4/4
C |----------------|
G |----------------|
D |7---------------|
A |----------------|           - Rest for 7 measures -
E |----------------|
B |----------------|

        [E]     Repeat 2x:                             1:13.8 - 1:34.9

C |----------------|----------------|----------------|----------------|
G |----------------|----------------|----------------|----------------|
D |----------------|--------0-------|----------------|----0-----------|
A |----------------|----0-----------|----------------|----------------|
E |------------3---|----------------|------------3---|------------0---|
B |3---3-----------|------------1---|3---3-----------|--------4-------|

C |----------------|----------------|----------------|----------------|
G |----------------|----------------|----------------|----------------|
D |----------------|--------3-------|----------------|----2-----------|
A |------------0---|----3-------3---|------------0---|--------3-------|
E |1---1-----------|----------------|0---0-----------|------------3---|
B |----------------|----------------|----------------|----------------|

C |----------------|----------------|----------------|----------------|
G |----------------|----------------|----------------|----------------|
D |----------------|----0---1---2---|3---3-------2---|----------------|
A |1-----------4---|----------------|----------------|----3-----------|
E |----2-----------|----------------|----------------|--------3---0---|
B |----------------|----------------|----------------|----------------|

C |----------------|----------------|------------2---|----------------|
G |----------------|----------------|----------------|----2---0-------|
D |----------------|----------------|0---0-----------|----------------|
A |----------------|----0---3---0---|----------------|----------------|
E |------------3---|----------------|----------------|----------------|
B |3---3-----------|----------------|----------------|----------------|

        [F]     Repeat 2x:                             1:34.9 - 1:45.4
   (gently)
C |0-----------0---|----------------|----------------|----------------|
G |----------------|----------------|3-----------3---|----------------|
D |----------------|----------------|----------------|----3-----------|
A |----------------|----------------|----------------|----------------|
E |----------------|----------------|----------------|----------------|
B |----------------|----------------|----------------|----------------|

C |0-----------0---|----------------|----------------|----------------|
G |----------------|----------------|3-----------3---|----------------|
D |----------------|----------------|----------------|----3-------3---|
A |----------------|----------------|----------------|----------------|
E |----------------|----------------|----------------|----------------|
B |----------------|----------------|----------------|----------------|

        [G]     Repeat 4x:                     1:45.4 - 1:54.7
   7/4
C |----------------|----------------|----------------|--------|
G |----------------|0---2-----------|----------------|0-------|
D |--------0---2---|--------0---2---|--------0---2---|--------|
A |0---0-----------|----------------|0---0-----------|--------|
E |----------------|----------------|----------------|--------|
B |----------------|----------------|----------------|--------|
                                                      
        [H]     No repeat:    1:54.7 - 2:01.1
   5/4
C |----------------|----------------|----0---|
G |--------2-------|--------4-------|--------|
D |----2-----------|----4-----------|--------|
A |0-----------2---|------------3---|--------|
E |----------------|----------------|--------|
B |----------------|----------------|--------|

C |--------2-------|--------4-------|----5---|
G |----2-----------|----4-----------|--------|
D |0-----------2---|------------3---|--------|
A |----------------|----------------|--------|
E |----------------|----------------|--------|
B |----------------|----------------|--------|

C |4---------------|----------------|----4---|
G |----------------|----------------|--------|
D |----------------|2---2-------2---|--------|
A |----------------|----------------|--------|
E |----------------|----------------|--------|
B |----------------|----------------|--------|

C |----------------|----------------|6-------|
G |----------------|--------4---6---|--------|
D |----3---2-------|4---4-----------|--------|
A |----------------|----------------|--------|
E |----------------|----------------|--------|
B |----------------|----------------|--------|


        
Comments

@koko37 (December 26, 2010 at 3:49 AM)

Great tabbing, but pretty difficult to play for me since its so fast.


@isa iv (February 26, 2011 at 7:39 PM)

This is my favorite song. I don't know how can you take the time to make songs and videos. I wish you have a video for this song. however you are incredible. I really want a video really