Gametabs
Home
Tabs
Random

Queen Bluegarden

Average rating: 5.000

6 ratings

Composer:

Tabber:

Style:

Instrument:

Created: July 18, 2009 at 12:00 AM

                            Secret of Evermore - Queen Bluegarden BASS TAB
                            Song by Jeremy Soule

                    Tabbed by auriplane ([email protected])
                               On Mar 26, 2009

I made three versions for this!  It might seem a little excessive, but I just
can't decide if I want to play this on four, five, or six strings!  So I made
all three ;-)  The four-string version is in drop D tuning.

. . . I think the five-string version might be easiest.

I marked the rhythm in 6/8 time.


                          FOUR-STRING VERSION (DROP-D)

                  - Rest for 16 measures at the beginning -

   E.    E.    Q.           E.    S S S S S S S S S  E.    E.    Q.
G |------------------------|------------7-9-7-------|------------------------|
D |------------------------|--------7-10-----10-7---|0-----------------------|
A |0-----0-----0-----------|L-----7---------------7-|------0-----------------|
D |------------------------|------------------------|------------0-----------|

   E.    S S S E   E   E    E.    E.    Q.           Q.          S S S S E
G |------------7-----------|------------------------|------------------------|
D |----------7-----7---0---|------------5-----------|----------------5-------|
A |------0-5---------------|------------------------|--------------5---5-----|
D |L-----------------------|5-----5-----------------|5-----------L-------5---|

   E.    E.    Q.           E.    E.    Q.           Q.          Q.
G |------------------------|------------------------|------------------------|
D |6-----------------------|------2-----------------|------------------------|
A |------7-----------------|------------------------|------------8-----------|
D |------------6-----------|2-----------2-----------|3-----------------------|

   Q       S S S S S S S S  E.    E.    Q.           Q       S S S S S S S S
G |----------------10------|------------------------|----------------7-------|
D |--------------10--10----|0-----------------------|--------------7---7-----|
A |8-------L---8-------8---|------0-----------------|--------L-0-5-------5-0-|
D |----------10----------10|------------0-----------|0-----------------------|

   E.    H               S  Q.          S S S S E    E.    E.    Q.
G |------------------------|----------------4-------|------------------------|
D |1-----------------------|--------------4---4-----|2-----------------------|
A |------2-----------------|2-----------L-------2---|------2-----------------|
D |----------------------4-|------------------------|------------2-----------|

   Q       S S S S S S E
G |--------1-2-4-1---------|
D |----------------2---2---|       Rest for 7
A |------------------2-----|        measures
D |2-----------------------|

   Q       Q       Q        H               E.    S  S S H               S S
G |------------------------|------------------------|------------------------|
D |------------------------|------------------------|3-----------------------|
A |0-----------------------|----------------------3-|--3---------------------|
D |--------5-------0-------|3---------------L-------|----3---------------L-2-|

   H               E.    S  S S H               E    H               E.    S
G |------------------------|------------------------|------------------------|
D |------------------------|------------------------|------------------------|
A |----------------------0-|5-0---------------------|----------------------3-|
D |0---------------L-------|----0---------------L---|3---------------L-------|

   Q       S S Q       E    E.    E.    Q.           Q.          Q.
G |------------------------|------------------------|------------------------|
D |3-------L---3-------2---|0-----------------------|------------------------|
A |----------3-------------|------0-----------------|5-----------3-----------|
D |------------------------|------------0-----------|------------------------|



                              FIVE-STRING VERSION

                  - Rest for 16 measures at the beginning -

   E.    E.    Q.           E.    S S S S S S S S S  E.    E.    Q.
G |------------------------|------------7-9-7-------|------------------------|
D |------------------------|--------7-10-----10-7---|0-----------------------|
A |0-----0-----0-----------|L-----7---------------7-|------0-----------------|
E |------------------------|------------------------|------------------------|
B |------------------------|------------------------|------------3-----------|

   E.    S S S E   E   E    E.    E.    Q.           Q.          S S S S E
G |------------7-----------|------------------------|------------------------|
D |----------7-----7---0---|------------5-----------|----------------5-------|
A |------0-5---------------|------------------------|--------------5---5-----|
E |------------------------|3-----3-----------------|3-----------L-------3---|
B |L-----------------------|------------------------|------------------------|

   E.    E.    Q.           E.    E.    Q.           Q.          Q.
G |------------------------|------------------------|------------------------|
D |6-----2-----------------|------------------------|------------------------|
A |------------------------|------7-----------------|------------8-----------|
E |------------4-----------|0-----------0-----------|------------------------|
B |------------------------|------------------------|6-----------------------|

   Q       S S S S S S S S  E.    E.    Q.           Q       S S S S S S S S
G |----------------10------|------------------------|----------------7-------|
D |--------------10--10----|0-----------------------|--------------7---7-----|
A |8-------L---8-------8---|------0-----------------|--------L-0-5-------5-0-|
E |----------8-----------8-|------------------------|------------------------|
B |------------------------|------------3-----------|3-----------------------|

   E.    H               S  Q.          S S S S E    E.    E.    Q.
G |------------------------|----------------4-------|------------------------|
D |1-----------------------|--------------4---4-----|2-----------------------|
A |------2-----------------|2-----------L-------2---|------2-----------------|
E |----------------------2-|------------------------|------------0-----------|
B |------------------------|------------------------|------------------------|

   Q       S S S S S S E
G |--------1-2-4-1---------|
D |----------------2---2---|       Rest for 7
A |------------------2-----|        measures
E |0-----------------------|
B |------------------------|

   Q       Q       Q        H               E.    S  S S H               S S
G |------------------------|------------------------|------------------------|
D |------------------------|------------------------|3-----------------------|
A |------------------------|----------------------3-|--3---------------------|
E |5-------3---------------|------------------------|------------------------|
B |----------------3-------|6---------------L-------|----6---------------L-5-|

   H               E.    S  S S H               E    H               E.    S
G |------------------------|------------------------|------------------------|
D |------------------------|------------------------|------------------------|
A |----------------------0-|5-0---------------------|----------------------3-|
E |------------------------|------------------------|----------------L-------|
B |3---------------L-------|----3---------------L---|6-----------------------|

   Q       S S Q       E    E.    E.    Q.           Q.          Q.
G |------------------------|------------------------|------------------------|
D |3-------L---3-------2---|------------------------|------------------------|
A |----------3-------------|5-----0-----------------|5-----------3-----------|
E |------------------------|------------------------|------------------------|
B |------------------------|------------3-----------|------------------------|




                               SIX-STRING VERSION

                  - Rest for 16 measures at the beginning -

   E.    E.    Q.           E.    S S S S S S S S S  E.    E.    Q.
C |------------------------|--------------4---------|------------------------|
G |------------------------|----------5-7---7-5-----|------------------------|
D |------------------------|--------7-----------7---|------------------------|
A |0-----0-----0-----------|L-----7---------------7-|5-----0-----------------|
E |------------------------|------------------------|------------------------|
B |------------------------|------------------------|------------3-----------|

   E.    S S S E   E   E    E.    E.    Q.           Q.          S S S S E
C |------------------------|------------------------|------------------------|
G |------------7-----------|------------------------|------------------------|
D |----------7-----7---0---|------------5-----------|----------------5-------|
A |------0-5---------------|------------------------|--------------5---5-----|
E |------------------------|3-----3-----------------|3-----------L-------3---|
B |L-----------------------|------------------------|------------------------|

   E.    E.    Q.           E.    E.    Q.           Q.          Q.
C |------------------------|------------------------|------------------------|
G |------------------------|------------------------|------------------------|
D |6-----------------------|------2-----------------|------------3-----------|
A |------7-----------------|------------------------|------------------------|
E |------------4-----------|0-----------0-----------|1-----------------------|
B |------------------------|------------------------|------------------------|

   Q       S S S S S S S S  E.    E.    Q.           Q       S S S S S S S S
C |--------------0-5-0-----|------------------------|------------------------|
G |------------------------|------------------------|----------------7-------|
D |3-------L---3-------3---|------------------------|--------------7---7-----|
A |----------3-----------3-|5-----0-----------------|--------L-0-5-------5-0-|
E |------------------------|------------------------|------------------------|
B |------------------------|------------3-----------|3-----------------------|

   E.    H               S  Q.          S S S S E    E.    E.    Q.
C |------------------------|------------------------|------------------------|
G |------------------------|----------------4-------|------------------------|
D |1-----------------------|--------------4---4-----|2-----------------------|
A |------2-----------------|2-----------L-------2---|------2-----------------|
E |----------------------2-|------------------------|------------0-----------|
B |------------------------|------------------------|------------------------|

   Q       S S S S S S E
C |------------------------|
G |--------1-2-4-1---------|
D |----------------2---2---|       Rest for 7
A |------------------2-----|        measures
E |0-----------------------|
B |------------------------|

   Q       Q       Q        H               E.    S  S S H               S S
C |------------------------|------------------------|------------------------|
G |------------------------|------------------------|------------------------|
D |------------------------|------------------------|3-----------------------|
A |------------------------|----------------------3-|--3---------------------|
E |5-------3---------------|------------------------|------------------------|
B |----------------3-------|6---------------L-------|----6---------------L-5-|

   H               E.    S  S S H               E    H               E.    S
C |------------------------|------------------------|------------------------|
G |------------------------|------------------------|------------------------|
D |------------------------|------------------------|------------------------|
A |------------------------|5-----------------------|----------------------3-|
E |----------------------5-|--5---------------------|------------------------|
B |3---------------L-------|----3---------------L---|6---------------L-------|

   Q       S S Q       E    E.    E.    Q.           Q.          Q.
C |------------------------|------------------------|------------------------|
G |------------------------|------------------------|------------------------|
D |3-------L---3-------2---|0-----------------------|------------------------|
A |----------3-------------|------------------------|5-----------3-----------|
E |------------------------|------5-----------------|------------------------|
B |------------------------|------------3-----------|------------------------|



        
Comments

@Vic9mm (July 19, 2009 at 12:49 PM)

wow this is awsome auri thank you for this arrangement :) you the best!


@Vic9mm (November 06, 2009 at 3:13 AM)

Yay!!! im finally getting the hang of this.


@fatalfable (January 26, 2010 at 10:55 PM)

wow, thats some really nice stuff. Thanks vic for making that the GTYNP, i look forward to whatjeremy soule can give. Still, awesome tab auri.


@diralark (January 17, 2012 at 8:05 AM)

probably underrated


@Ennea (November 08, 2015 at 8:48 AM)

I always come back to this, great tab Auri!