Gametabs
Home
Tabs
Random

Moon Revenge

Average rating: 5.000

6 ratings

Composer:

Tabber:

Style:

Instrument:

Created: January 02, 2011 at 12:00 AM

            Gtr I (E A D G B E) - 'Untitled'

   Q=80
  
   Gtr I
   H.        E E E   E E E E E E E E   E E E E E Q    E  Q.    E E E E E
*|---------------1-|-1-----1-L-------|-----------3---0-|-L-----------0---|
*|-----------------|-----3-----------|-----6-6-L-------|-------3-3-3---1-|
*|-----------2-2---|---2-------2-2-2-|-3-----------3---|-----0-----------|
*|-----------------|-0---------------|---------5-------|---2-------------|
*|-----------------|-----------------|---5-------------|-3---------------|
*|-----------------|-----------------|-3---------------|-----------------|
   


  
   H       E Q   E   E E E E E E E E   E E E E E E E E   H       Q.    E
*|-----------------|-------------0-1-|-------1---0-1-3-|-L-------1-----0-|
*|-L---------------|-3-----3-2-3-----|-----3---3-------|-----3-----------|
*|-------2---2---2-|-----3-----------|---2-------------|---3---3---------|
*|-----3---3-------|---3-------------|-0---------------|-2---------------|
*|---3-------------|-1---------0-----|-----------------|-----------------|
*|-1---------------|-----------------|-----------------|---------0-------|
   



   H       E E E E   E E E E E E E E   E E E E E Q   E   Q.    E E E E E
*|-L-------------1-|-L-----1-L-------|-----------3---0-|-L-----------0---|
*|-------2---------|-----3-----------|-----6-6-L-------|-------3-3-3---1-|
*|-----0-----2-2---|---2-------2-2-2-|-3-----------3---|-----0-----------|
*|---2-------------|-0---------------|---------5-------|---2-------------|
*|-0---------------|-----------------|---5-------------|-3---------------|
*|-----------------|-----------------|-3---------------|-----------------|
   



   H       E Q   E   E E E E E E E E   E E E E E E E E   E E E E Q   E E
*|-----------------|-------------0-1-|-L-----1---0-1-3-|-L-3-3-3-3---0-5-|
*|-L---------------|-3-----3-2-3-----|-----3---3-------|-----------------|
*|-------2---2---2-|-----3-----------|---2-------------|-----------------|
*|-----3---3-------|---3-------------|-0---------------|-----------------|
*|---3-------------|-1-------0-------|-----------------|-----------------|
*|-1---------------|-----------------|-----------------|-0-------0-------|
   


   H.          Q     Q.    Q.    Q     Q.    Q.    Q     E E E Q   E Q
*|-L---------------|-----------------|-----------------|-------5-----6---|
*|-----------------|-6-----5---------|-------5---------|-----------------|
*|-------6---------|-----7-------7---|-6---------------|-7---7-----7-----|
*|-----5-------7---|---7-------7---7-|-----7-------7---|---7-------------|
*|---7-------------|-5---------------|---7-------7---7-|-5---------------|
*|-5---------------|-----------------|-5---------------|-----------------|
  


  
   Q.      Q E E E   E E E E E E E E   E E Q.    E E E   Q.    E H
*|-5-------3-3-3-5-|-6-6-6-6-L-6-6-6-|-5-8-L---------5-|-6---------------|
*|-----------------|-----------------|-----------6-8---|-----------------|
*|-----3-----------|-----------------|-----------------|-------8-L-------|
*|---5-------------|---------5-------|---------0-------|-----------------|
*|-----------------|-3---------------|-8---------------|-6---------------|
*|-3---------------|-----------------|-----------------|-----------------|
   E E H.            H        H          H        H


                                                         ^
   Q.   E Q    Q     Q   Q   Q   Q     Q   Q   Q   Q     Q   Q   Q   Q
*|-5---------------|-5---------------|-3---------------|-0-----------3---|
*|-----------------|-----------------|-------------5---|-3-------3-------|
*|------7-L--------|-------------7---|---------5-------|-2---2-----------|
*|-------------7---|---------8-------|-----5-----------|-0---------------|
*|-5---------------|-----8-----------|-3---------------|-----------------|
*|-----------------|-6---------------|-----------------|-----------------|


   ^ 
   W
*|-2--------------*|
*|-3--------------*|
*|-2--------------*|
*|-0--------------*|
*|----------------*|
*|----------------*|
        
Comments

@daruga (January 03, 2011 at 11:32 AM)

Thanks a lot this is really great


@diralark (August 04, 2011 at 2:22 PM)

...another great tab ! Thx