Gametabs
Home
Tabs
Random

Omoi - Odorenai Waratsu (Gut Guitar Version)

Average rating: 4.750

4 ratings

Composer:

Tabber:

Style:

Instrument:

Created: November 30, 2007 at 12:00 AM

                             OMOI - ~ODORENAI WARATSU~ -GUT GUITAR VERSION-
                         As recorded by Noriyuki Asakura
         (From the 2002 Album RUROUNI KENSHIN COMPLETE CD-BOX - SCENE.4)

Music by Noriyuki Asakura
Arranged by ajrock2000

Gtr I (E A D G B E) - 'Untitled'

    Q=108
   3/4
    Gtr I
    Q.          Q  T T S +Q   E   Q  Q.   E   H.         S H      S E
||--0---------|-3--1h3-1-(1)--0-|-----------|-0--------|---------------|
||o--------1--|-----------------|-3--1----3-|-----0----|-3h5--------5--|
||---------2--|-----------------|----2------|-----1----|-----5---------|
||------2-----|----0------------|----3------|-----2----|-----7---------|
||o-0---------|-----------------|-----------|----------|-0---7---------|
||------------|-3---------------|-1---------|-0--------|---------------|
    Q   Q  Q    Q  H              Q  H        Q   H      Q   H


  Q  T T S +Q   E   Q  Q.   S S   Q.    +E  E E   H.          H.
|-3--1h3-1-(1)--0-|-------------|---------------|-----------|-----------|
|-----------------|-3--1----1h3-|-0-----(0)---0-|-1---------|-3---------|
|-----------------|----2--------|-----1-----2---|------2----|------4----|
|----0------------|----3--------|-----2---------|------3----|------5----|
|-----------------|-------------|-----2---------|----3------|----5------|
|-3---------------|-1-----------|-0-------------|-1---------|-3---------|
  Q  H              Q  H          Q   H           E  E H      E  E H


  Q   Q.     E   Q   H      H.         S E. T T S +Q    E   H.
|-0---1------3-|----------|----------|--------------------|---------------|
|--------1-----|-1---1----|-1--------|-1h3--1h3p1-(1)---3-|-0--------0----|
|-----0--------|-----0----|-----2----|----------------2---|--------1---1--|
|---2--------0-|---2------|-----3----|----------------3---|------2--------|
|-3--------2---|-0--------|-----3----|------3---------3---|----2----------|
|--------------|----------|-1--------|-1------------------|-0-------------|
  E E E  E E E   E E H      Q   H      Q    Q         Q     E  E E E E E


|-0--------||----|
|---------o||----|
|----------||----|
|----------||----|
|---------o||----|
|----------||----|
  H.

        
Comments

@ajrock2000 (November 30, 2007 at 8:52 PM)

There are 2 other parts in the song, but they are pretty much the same, as one goes an octive higher, and the other adds tremelo, which I did not have the patience to figure out how powertab does that...lol


@archard (December 01, 2007 at 5:39 AM)

Good stuff. What exactly is a gut guitar though?


@Rick (December 01, 2007 at 9:49 AM)

Something is wrong with the tab... I can't put my finger on it... or maybe its just the fact that its a MIDI and not the real thing... but its lacking something Somewhere, or maybe its just me lol


@Rick (December 01, 2007 at 11:16 AM)

Yeah I think its just because its in MIDI


@ajrock2000 (December 01, 2007 at 1:25 PM)

I have no idea what gut guitar means either...lol...sounds funny though

Yeah, I know what you mean Rick...I think the lead guitar and backup guitar have different volumes in the real song (backup is played very soft in the real song)...and the lead guitar has that classical echo, which midi does not replicate


@Takoon (June 13, 2008 at 2:28 AM)

This is a really great tab. Some of feels a little bit funny to me, but it's just personal preference. I'm trying to play it right now, and it's easily altered to satisfy me. lol

What a beautiful arrangement. I can't wait to get into this.