Gametabs
Home
Tabs
Random

Minagoroshi no Elegy (Captain Sagara/Sekihoutai Theme)

Average rating: 5.000

1 ratings

Composer:

Tabber:

Style:

Instrument:

Created: December 13, 2009 at 12:00 AM

            Anime - Rurouni Kenshin (Samurai X)
Song - Minagoroshi no Elegy (Captain Sagara/Sekihoutai Theme)
Composer - Noriyuki Asakura 
Tabber - ChelseaRare
Tuning - Drop C (CGCFAD)


      E  E  Q    E  E  E  E     S  S  E  Q    Q    E  E   
D||-----------------------2--|--7p-5h-7---------------L--|
A||---3-----2----L--2--3-----|---------------------------|
F||*--4----------------2-----|-----------0---------------|
C||*-----4-------------------|--------0-------4----0-----|
G||---2----------0-----------|---------------------------|
C||--------------------------|--5------------------------|


  E  E  Q    E  E  E  E     S  S  E  E  E  Q    Q       E  E  Q    E  E  E  E   
-------------------------|----------------------0----|----------------------2--|
--8----------L--7--5-----|--5h-7p-5--L----------2----|--3-----2----L--2--3-----|
--------9-------------7--|--------------6------------|--4----------------2-----|
-----9-------------0-----|-----------7-----8---------|-----4-------------------|
--7----------------------|--0-----7------------------|--2----------0-----------|
-------------0-----------|---------------------------|-------------------------|


  S  S  E  Q    Q    E  E     E  E  Q    E  E  E  E   
--7p-5h-7---------------L--|-------------------------|
---------------------------|--8----------L--7--5-----|
-----------0---------------|--------9-------------7--|
--------0-------4----0-----|-----9-------------0-----|
---------------------------|--7----------------------|
--5------------------------|-------------0-----------|


  S  S  E  E  E  Q    Q       E  E  E  E  E  E  E  S S  
----------------------0----|-----------------------0-2-|
--5h-7p-5--L---------------|--4-----------------L------|
--------------6------------|---------------------------|
-----------7-----8---------|--------4-----2-----1------|
--0-----7------------------|-----1---------------------|
---------------------------|--1--------1-----1---------|


  E  E  E  E  E  E  E  S S    E  E  E  E  E  E  E  S S  
--3-----------------L----0-|--2-----------------L----0-|
-----------------------3---|-----------------------3---|
--------0------------------|---------------------------|
-----2--------4-----2------|--------4-----------0------|
---------------------------|-----0--------2------------|
--2--------2-----2---------|--0--------0-----0---------|


                             ^                  
  E  E  E  E  Q    Q         W                  
-----0-----0-------------||--7----------------||
--7-----3-----2----------||--3----------------||
------------------------*||--0----------------||
------------------------*||-------------------||
--------2-----0----4-----||-------------------||
--5----------------------||-------------------||




Duration Legend
---------------
W - whole
Q - quarter
E - 8th
S - 16th

        
Comments

@Brave Toaster (December 14, 2009 at 6:19 AM)

Nice, I liked it! Also, I've never saw an arrangement with such exquisite tuning. Congratulations!


@Ennea (October 18, 2010 at 6:17 PM)

great!


@sagoran (October 30, 2011 at 6:02 PM)

Im sorry to be so noob, but what dos L means? and how it aplies wuhile playing?.

BTW awsome tabs (y) =D. Thankx