Gametabs
Home
Tabs
Random

Kaoru to Misao (Guitar Gut Version)

Average rating: No ratings

Composer:

Tabber:

Style:

Instrument:

Created: November 30, 2007 at 12:00 AM

                                 KAORU TO MISAO (I) -GUT GUITAR VERSION-
                         As recorded by Noriyuki Asakura
(From the 2002 Album RUROUNI KENSHIN COMPLETE CD-BOX - SCENE.6 )

Music by Noriyuki Asakura
Arranged by ajrock2000

Gtr I (E A D G B E) - 'Backup'
Gtr II (E A D G B E) - 'Lead'

  Q=80
 4/4
  Gtr I
  E E E E E E E E   E E E E E E E E   E E E E E E E E   E E E E Q.
|-0-------0-------|-2-----2---------|-3-------3-------|-2-------2----|
|-------0-----0---|-----------------|-------1-----1---|-------3------|
|-----0-------0---|-----0-------0---|-----0-------0---|-----2--------|
|---2-------2---2-|---4-------4---4-|---2-------2---2-|---4----------|
|-----------------|-----------------|-----------------|--------------|
|-0---------------|-0-------0-------|-0---------------|-0------------|
|
| Gtr II
|   W               W                 W                 W
|-----------------|-----------------|-----------------|--------------|
|-----------------|-----------------|-----------------|--------------|
|-----------------|-----------------|-----------------|--------------|
|-----------------|-----------------|-----------------|--------------|
|-----------------|-----------------|-----------------|--------------|
|-----------------|-----------------|-----------------|--------------|


  E E E E E E E E     E E E E E E E E
|-0-------0-----0---|-2---------------|
|-------0-----0-----|-----------------|
|-----0-----0-------|-----4-------4---|
|---2---------------|---4---4---4---4-|
|-------------------|-2-------2-------|
|-0-------0---------|-----------------|
|
| H       E E E S S   H       H
|---------------5h7-|-7---------------|
|-5-------5-7-8-----|---------8-------|
|-------------------|-----------------|
|-------------------|-----------------|
|-------------------|-----------------|
|-------------------|-----------------|


  E E E E E E     E E     E E E E E E E E
|-------3-0-------------|---------0-------|
|-----0-----------0-----|-------0---------|
|---0-------0-------0---|-----0-------0---|
|-0---------------------|---2-------2---2-|
|-----------------------|-4-------4-------|
|-----------------------|-----------------|
|
| H       E T T S E S S   W
|-5-------5-3h5p3-2-2h3-|-0---------------|
|-----------------------|-----------------|
|-----------------------|-----------------|
|-----------------------|-----------------|
|-----------------------|-----------------|
|-----------------------|-----------------|


  E E E E E   E E E    E E E E E     E  E E
|-------------------|--------0--------------|
|-----0---------0---|------3------------3---|
|-----0---------0-0-|----2-----------2----2-|
|---2---2-----2-----|--0-------0------------|
|-3-------3---------|-----------------------|
|-------------------|-----------------------|
|
| H       S S E E E    H       T S. +Q.
|-3-------2h3-0-3-7-|-10-------3h5--(5)-----|
|-------------------|-----------------------|
|-------------------|-----------------------|
|-------------------|-----------------------|
|-------------------|-----------------------|
|-------------------|-----------------------|


  E E E E  E  E    E E       E E E E H
|----------0---------------|---------2----|
|-------0----------0-------|--------------|
|-----0--------------0-----|-----0-4------|
|---2---------2------------|---4----------|
|-3--------3---------------|-2-------2----|
|--------------------------|--------------|
|
| H       +E  S E.   T T S   W
|-3-------(3)-3h5----3h5p3-|-2------------|
|--------------------------|--------------|
|--------------------------|--------------|
|--------------------------|--------------|
|--------------------------|--------------|
|--------------------------|--------------|


  E E E E E E  E        E     E    E  E E E E E E
|-0---------------------0---|-2-------------------|
|-------0------0------------|---------------------|
|-----0---------------------|---------4-------4---|
|---2-------2---------------|------4----4---4---4-|
|---------------------------|-2-----------2-------|
|-0-------0-----------------|---------------------|
|
| H       E E.   +T  S.   S   S S +Q.     H
|-------------------------5-|-5h7-(7)-------------|
|-5-------5-7----(7)-8------|-------------8-------|
|---------------------------|---------------------|
|---------------------------|---------------------|
|---------------------------|---------------------|
|---------------------------|---------------------|


  E E E E E   E     E   E   E E E E E E E E
|-------0-----------0-----|---------0--------|
|-----0-------------0-----|-------0----------|
|---0---------0---------0-|-----0-------0----|
|-0-------0---------------|---2-------2---2--|
|-------------------------|-4-------4--------|
|-------------------------|------------------|
|
| H       S S T T E   S E   W
|-5-------3h5-3-5-3---2h3-|-0----------------|
|-------------------------|------------------|
|-------------------------|------------------|
|-------------------------|------------------|
|-------------------------|------------------|
|-------------------------|------------------|


  E E E E E E E E      E E E E E E E E
|---------0---0-----|--------0-2---2---|
|-------0-0---0-----|------3---3---3---|
|-----0-----0---0---|----2-------2---2-|
|---2---------------|--0-------0-------|
|-3-------3---------|------------------|
|-------------------|------------------|
|
| H       E E E S S    H       H
|-3-------3-0-3-5h7-|-10-------5-------|
|-------------------|------------------|
|-------------------|------------------|
|-------------------|------------------|
|-------------------|------------------|
|-------------------|------------------|


  E E E E E  E     E     E   E E E E E E E E
|---------0----------------|---------2-------|
|-------0----------0-------|-------0-----0---|
|-----0------------------0-|-----2-------2---|
|---2--------2-------------|---1-------1---1-|
|-3-------3----------------|-2-------2-------|
|--------------------------|-----------------|
|
| H       E.   +E    T T E   W
|-3-------3----(3)---3h5p3-|-2---------------|
|--------------------------|-----------------|
|--------------------------|-----------------|
|--------------------------|-----------------|
|--------------------------|-----------------|
|--------------------------|-----------------|


  E E   E   E E E E E   E E E E E E E E
|---------------------|-----------------|
|-------------------0-|-----3-------3---|
|-------0-------0-2---|---2---2-2-2---2-|
|---2-------2---------|-0-------0-------|
|-3-----------3-------|-----------------|
|---------------------|-----------------|
|
| |---3---|
| Q   Q   Q   E E E E   H       H
|-3---3---3---3p0-2-3-|-2---------------|
|-0---0---0---0-------|---------3-------|
|---------------------|-----------------|
|---------------------|-----------------|
|---------------------|-----------------|
|---------------------|-----------------|


  E E    E E  E E  E  E    E E E E E E E E
|-----------------------|-------------------|
|-----------------------|------0-------0----|
|--------0----0----0----|----0---0---0---0--|
|---0------0----0-----0-|-------------------|
|-----------------------|--2-------2--------|
|-3---------------------|-------------------|
|
| E S  S E E  E E  E  E    H       H
|---8h10-8-7------------|-------------------|
|------------10-8-10h12-|-10-------8--------|
|-----------------------|-------------------|
|-----------------------|-------------------|
|-----------------------|-------------------|
|-----------------------|-------------------|


  E E   E   E E E  E E    E E E E E E E E
|----------------------|------------------|
|-------1----------1---|------3-------3---|
|---0-------0---0----0-|----2---2---2---2-|
|----------------------|--0-------0-------|
|-3-----------3--------|------------------|
|----------------------|------------------|
|
| |---3---|
| Q   Q   Q   E E  E E    H       H
|-7---7---7---7------7-|------------------|
|-8---8---8---8-8-10---|-10-------7-------|
|-7---7---7---7--------|------------------|
|----------------------|------------------|
|----------------------|------------------|
|----------------------|------------------|


  E  E    E    E   E     E  E   E   E  E E E E E E E
|-0-------------------------------|----------2--------|
|---------1-----------------1-----|--------0-------0--|
|----0---------0---------0------0-|------2-------2----|
|---------------------------------|----1-------1------|
|-3----------------3--------------|-2-----------------|
|---------------------------------|-------------------|
|
| E  S  E    E   S T T S E.   S E   H.           E E
|---10h12---10---8-7h8p7-5----7-8-|-7------------5-3--|
|---------------------------------|-------------------|
|---------------------------------|-------------------|
|---------------------------------|-------------------|
|---------------------------------|-------------------|
|---------------------------------|-------------------|

This ending is really guesswork...

  H.=H
   H    T T T T T T +E   E (this should be tapped to get sound an octive higher)
|-^0----0---------------14----|
|-^0------3-2-0---------------|
|-^0------------2-0-(0)-------|
|-^2--------------------------|
|-^2--------------------------|
|-^0--------------------------|
|
|  H
|--2--------------------------|
|-----------------------------|
|-----------------------------|
|-----------------------------|
|-----------------------------|
|-----------------------------|


        
Comments

@DuoDn (November 30, 2007 at 2:41 PM)

sweet awesome gj!


@archard (November 30, 2007 at 5:47 PM)

very nice, good job


@ajrock2000 (November 30, 2007 at 7:13 PM)

Thanks, theres some more very good songs from this anime, except they are very hard to transcribe to one guitar...I'll post one on the forum soon. The song is the Himura Kenshin theme...here is a guy on youtube that does an excellent job, although its his own version and he doesn't play all the notes, but I believe it is one guitar...

http://youtube.com/watch?v=HQBYuehlh_Y


@Piipa (October 26, 2009 at 8:59 PM)

this song is nice man, but i really want kabukibear to make a solo version of this song. that would be awesome!!!