Gametabs
Home
Tabs
Random

Running Around The City

Average rating: 5.000

1 ratings

Composer:

Tabber:

Style:

Instrument:

Created: December 14, 2009 at 12:00 AM

                              River City Ransom - Running Around The City  
                            Composed by Kazuo Sawa  
  
                    Tabbed by Auriplane ([email protected])  
  
  
There are three parts here:  
  
        Melody      (Guitar)  
        Harmony     (Guitar)  
        Bass        (Bass)  
  
This song has a sixteenth note "triplet feel", which means the notes are 
kinda a bouncy rhythm XD  Just listen to the MIDI to see what I mean.  
Also, I've included a GP5 file, but it doesn't sound right in Guitar Pro.  
It sounds fine in Tuxguitar, though.  Let me know if you know how to fix it.  

Anyway, this song follows a really fast twelve-bar blues progression, but
since it's so fast I wrote it as six bar :-)  The structure looks like this:

        Part A
        Part B & Part C
        Part B & Part C (again)
        Part D
        Part E
        Part F

As a final note, I futzed around with octaves a bit.  This is probably most
noticeable in the last 12 notes of measure 2, which should actually have an
octave on every third note, but I couldn't think how to make that playable. 

Have fun!


 
  
1ST GUITAR - MELODY  
  
  
    [Part A]  
  
  
        |-3-|                          |-3-|       |-3-| |-3-| |-3-| |-3-|  
     E  S S S E  E  E  E  S S E     E  S S S E  E  S S S S S S S S S S S S  
e||------------------------------|-----------------------------------------|  
B||-----------3--2--5--3--2------|-----------3--2--0-0-0-2-2-2-3-3-3-5-5-5-|  
G||--4--2-2-4---------------2-L--|--4--2-2-4-------------------------------|  
D||------------------------------|-----------------------------------------|  
A||------------------------------|-----------------------------------------|  
E||------------------------------|-----------------------------------------|  
  
  
     |-3-|                       |-3-| |-3-| |-3-| |-3-|  
  E  S S S E  E  E  E  S S E     S S S S S S S S S S S S S S S S S S E  
------------------------------|-----------------------------------------|  
-----------3--2--5--3--2------|--------------------------3-2------------|  
--4--2-2-4---------------2-L--|--4-4-2-4-4-2-4-4-2-4-4-2-------4---2-L--|  
------------------------------|-----------------------------------------|  
------------------------------|-----------------------------------------|  
------------------------------|-----------------------------------------|  
  
  
    [Part B]  
  
  
    S S S S S S S S S S S S S S S S    S S S S S S S S S S S S S S S S  
|-----------------------------------|----------------------------------|  
|---------------------4-------------|--------------------4-------------|  
|*------2-4-4-4---------4-2-4-4-----|------2-4-4-4---------4-2-4-4-----|  
|*----4-----------------------------|----4-----------------------------|  
|-----------------------------------|----------------------------------|  
|-----------------------------------|----------------------------------|  
  
  
  S S S S S S S S S S S S S S S S    S S S S S S S S S S S S S S S S  
--------------------4-------------|----------------------------------|  
------3-5-5-5---------5-3-5-5-----|--------------------4-------------|  
----4-----------------------------|------2-4-4-4---------4-2-4-4-----|  
----------------------------------|----4-----------------------------|  
----------------------------------|----------------------------------|  
----------------------------------|----------------------------------|  
  
  
  S S S S S S S S S S S S S S S S    S S S S S S S S S S S S S S S S  
--------2-2-2-------4-------------|----------------------------------|  
----2-5---------------5-3-5-5-----|--------------------4-------------|  
----------------------------------|------2-4-4-4---------4-2-4-4-----|  
----------------------------------|----4-----------------------------|  
----------------------------------|----------------------------------|  
----------------------------------|----------------------------------|  
  

    [Part C]
 
  
  E  E  E  S S S S S S E  S S    E  E  S S S S S S S S Q       
------------------------------|--------2--------------------|  
-------------2-3-3----------3-|--5--3----5-3-------3--------|  
--4--4--4--4---------4-L--4---|--------------4-2-4---4-L----|  
------------------------------|-----------------------------|  
------------------------------|-----------------------------|  
------------------------------|-----------------------------|  
  
  
                                 |-3-| |-3-| |-3-| |-3-|  
  E  E  E  S S S S S S E  S S    S S S S S S S S S S S S S S S S E  S S    
------------------------------|------------------------2----------------|  
-------------2-3-3----------3-|--5-5-3-5-5-3-5-5-3-5-5---3------------3-|  
--4--4--4--4---------4-L--4---|----------------------------4-2-4-L--4---|  
------------------------------|-----------------------------------------|  
------------------------------|-----------------------------------------|  
------------------------------|-----------------------------------------|  
  
  
  E  S S S S S S E  S S S S S S    E  S S S S S S S S S S E  S S    
--------------------------------|-----------5---3----------------|  
--7--L-5-------3-5--L-3-------3-|--7--L-5---------7-5-3-7-L----3-|  
-------------4--------------4---|----------------------------4---|  
--------------------------------|--------------------------------|  
--------------------------------|--------------------------------|  
--------------------------------|--------------------------------|  
  
  
  E  S S S S S S E  S S S S S S    S S S S S S S S Q    Q         
--------------------------------|-----------------------------||  
--7--L-5-------3-5--L-3-------3-|--7---5---3------------------||  
-------------4--------------4---|----------------7-4---------*||  
--------------------------------|------------4-7-------------*||  
--------------------------------|-----------------------------||  
--------------------------------|-----------------------------||  
  
  
    [Part D]  
  
  
  S S S S S S S S S S S S S S S S    S S S S S S S S S S S S S S S S  
----------------------------------|----------------------------------|  
--------------7-------------------|--------------7-------------------|  
--4---4---4-----4---4---4-7-7-4---|--4---4---4-----4---4---4-7-7-4---|  
----------------------------------|----------------------------------|  
----------------------------------|----------------------------------|  
----------------------------------|----------------------------------|  
  
  
  S S S S S S S S S S S S S S S S    S S S S S S S S S S S S S S S S  
--------------7-------------------|----------------------------------|  
--5---5---5-----5---5---5-8-8-5---|--------------7-------------------|  
----------------------------------|--4---4---4-----4---4---4-7-7-4---|  
----------------------------------|----------------------------------|  
----------------------------------|----------------------------------|  
----------------------------------|----------------------------------|  
  
  
                                                     |---3---| |---3---|  |---3--|  |---3--|  
  S S S S S S S S S S S S S S S S    S S S S S S S S S   S   S S   S   S  S  S   S  S  S   S  
--------------9-------------------|-----------------------------------------------------------|  
--7---7---7-----5---5---5-8-8-5---|--------------7---------------------------------10p-7h-11S-|  
----------------------------------|--4---4---4-----4---------------------11p-9h-11------------|  
----------------------------------|----------------------------9h-11h-12----------------------|  
----------------------------------|------------------9h-12h-13--------------------------------|  
----------------------------------|-----------------------------------------------------------|  
  

    [Part E]
 
  
   S S  S S S  S  S  S  S  S  S  S S  S  S  S     S S  S S  S  S  S  S  S  S  S  S  E   S  S  
-----------------10----10---------------10----|--14---10---12-10-------------10-----------10-|  
--12---12-----12----12----12-10-12---12----12-|------------------12-10----10----12--L--12----|  
----------------------------------------------|------------------------11--------------------|  
----------------------------------------------|----------------------------------------------|  
----------------------------------------------|----------------------------------------------|  
----------------------------------------------|----------------------------------------------|  
  
  
   E   S S  S S  S  S  E   S S  S S  S  S     E   S S  S  S  S  S  S  S  S  S  Q  
--12--10-----------10-12--10-----------10-|--14--10---13-12-10----------10----------|  
-----------12---12-------------12---12----|--------------------12-10-12----12--L----|  
------------------------------------------|-----------------------------------------|  
------------------------------------------|-----------------------------------------|  
------------------------------------------|-----------------------------------------|  
------------------------------------------|-----------------------------------------|  
  
  
   S  S  S  S  S  S  S  S  S  S  S  S  S  S S S     S  S  S  S  S  S  S  S S S  S  S  Q  
--14-14-14-14-14-14-14-14-12-12-12-10-12-14-----|------------------------------------------|  
------------------------------------------------|--12-12-12-12-12-12-12-12-----------------|  
------------------------------------------------|----------------------------9-10-11--L----|  
------------------------------------------------|------------------------------------------|  
------------------------------------------------|------------------------------------------|  
------------------------------------------------|------------------------------------------|  
  

    [Part F]
 
  
   |---3---|  |---3--|  |---3---|  |---3--|  |---3---|  |---3--|  |---3---|  |---3--|  
   S   S   S  S   S  S  S   S   S  S   S  S  S   S   S  S   S  S  S   S   S  S   S  S  
--------------------------------------------------------------------------------------|  
--12p-11p-10-----------12p-11p-10-----------12p-11p-10-----------12p-11p-10-----------|  
-------------11p-10p-9------------11p-10p-9------------11p-10p-9------------11p-10p-9-|  
--------------------------------------------------------------------------------------|  
--------------------------------------------------------------------------------------|  
--------------------------------------------------------------------------------------|  
  
  
   |---3---|  |---3--|  |---3---|  |---3--|  |---3---|  |---3--|  |---3---|  |---3--|  
   S   S   S  S   S  S  S   S   S  S   S  S  S   S   S  S   S  S  S   S   S  S   S  S  
--------------------------------------------------------------------------------------|  
--12p-11p-10-----------12p-11p-10-----------12p-11p-10-----------12p-11p-10-----------|  
-------------11p-10p-9------------11p-10p-9------------11p-10p-9------------11p-10p-9-|  
--------------------------------------------------------------------------------------|  
--------------------------------------------------------------------------------------|  
--------------------------------------------------------------------------------------|  
  
  
   |---3---|  |---3---|  |---3---|  |---3---|  |---3---|  |---3---|  |---3---|  |---3---|  
   S   S   S  S   S   S  S   S   S  S   S   S  S   S   S  S   S   S  S   S   S  S   S   S  
--12p-11p-10------------12p-11p-10------------12p-11p-10------------12p-11p-10------------|  
-------------12p-11p-10------------12p-11p-10------------12p-11p-10------------12p-11p-10-|  
------------------------------------------------------------------------------------------|  
------------------------------------------------------------------------------------------|  
------------------------------------------------------------------------------------------|  
------------------------------------------------------------------------------------------|  
  
  
   |---3---|  |---3--|  |---3---|  |---3--|  |---3---|  |---3--|  |---3---|  |---3--|  
   S   S   S  S   S  S  S   S   S  S   S  S  S   S   S  S   S  S  S   S   S  S   S  S  
--------------------------------------------------------------------------------------|  
--12p-11p-10-----------12p-11p-10-----------12p-11p-10-----------12p-11p-10-----------|  
-------------11p-10p-9------------11p-10p-9------------11p-10p-9------------11p-10p-9-|  
--------------------------------------------------------------------------------------|  
--------------------------------------------------------------------------------------|  
--------------------------------------------------------------------------------------|  
  
  
  S  S  S  S  S  S  S  S  S  S  S  S  S  S  S  S     S  S  S  S  S S  S S S  S  S S Q  
----------14-------14-------14-------14-------14-|--12-10--------------------------------||  
----13-14----13-14----13-14----13-14----13-14----|--------12-10--------------------------||  
-------------------------------------------------|--------------11-9---------------------||  
-------------------------------------------------|-------------------12-9---------9-L----||  
-------------------------------------------------|------------------------9-12-13--------||  
-------------------------------------------------|---------------------------------------||  
  
  
  
2ND GUITAR - HARMONY  
  
  
    [Part A]  
  
  
        |-3-|                          |-3-|       |-3-| |-3-| |-3-| |-3-|  
     E  S S S E  E  E  E  S S E     E  S S S E  E  S S S S S S S S S S S S  
e||------------------------------|-----------------------------------------|  
B||------------------------------|-----------------------------------------|  
G||-----------2--1--4--2--1------|-----------2--1--------1-1-1-2-2-2-4-4-4-|  
D||--4--2-2-4---------------2-L--|--4--2-2-4-------4-4-4-------------------|  
A||------------------------------|-----------------------------------------|  
E||------------------------------|-----------------------------------------|  
  
  
     |-3-|                       |-3-| |-3-| |-3-| |-3-|  
  E  S S S E  E  E  E  S S E     S S S S S S S S S S S S S S S S S S E  
------------------------------|-----------------------------------------|  
------------------------------|-----------------------------------------|  
-----------2--1--4--2--1------|--------------------------2-1------------|  
--4--2-2-4---------------2-L--|--4-4-2-4-4-2-4-4-2-4-4-2-------4---2-L--|  
------------------------------|-----------------------------------------|  
------------------------------|-----------------------------------------|  
  
  
    [Part B]  
  
  
    S S S S S S S S S S S S S S S S    S S S S S S S S S S S S S S S S  
|-----------------------------------|----------------------------------|  
|-----------------------------------|----------------------------------|  
|*----------------------------------|----------------------------------|  
|*----------------------------------|----------------------------------|  
|-----------------2-L-2-------2-----|----------------2-L-2-------2---2-|  
|---2-2-4-2-5-2-4-------5-4-5-----2-|--L-2-4-2-5-2-4-------5-4-5-------|  
  
  
  S S S S S S S S S S S S S S S S    S S S S S S S S S S S S S S S S  
----------------------------------|----------------------------------|  
----------------------------------|----------------------------------|  
----------------------------------|----------------------------------|  
----------------2-L-2-------2-----|----------------------------------|  
--L-2-4-2-5-2-4-------5-4-5-------|----------------2-L-2-------2---4-|  
--------------------------------2-|--L-2-4-2-5-2-4-------5-4-5-------|  
  
  
  S S S S S S S S S S S S S S S S    S S S S S S S S S S S S S S S S  
----------------------------------|----------------------------------|  
----------------------------------|----------------------------------|  
----------------------------------|----------------------------------|  
----------------------------------|----------------------------------|  
--L-4-6-4-7-4-6-2-L-2-4-2-5-2-4---|----------------2-L-2-------2-----|  
--------------------------------2-|--L-2-4-2-5-2-4-------5-4-5-------|  


    [Part C]
  
  
  E  E  E  S S S S S S E  S S    E  E  S S S S S S S S Q       
------------------------------|-----------------------------|  
------------------------------|--------2--------------------|  
-------------1-2-2----------2-|--4--2----4-2-------2--------|  
--4--4--4--4---------4-L--4---|--------------4-2-4---4-L----|  
------------------------------|-----------------------------|  
------------------------------|-----------------------------|  
  
  
                                 |-3-| |-3-| |-3-| |-3-|  
  E  E  E  S S S S S S E  S S    S S S S S S S S S S S S S S S S E  S S    
------------------------------|-----------------------------------------|  
------------------------------|------------------------2----------------|  
---------------1-1----------1-|--4-4-2-4-4-2-4-4-2-4-4---2------------2-|  
--2--2--2--2-4-------2-L--2---|----------------------------4-2-4-L--4---|  
------------------------------|-----------------------------------------|  
------------------------------|-----------------------------------------|  
  
  
  E  S S S S S S E  S S S S S S    E  S S S S S S S S S S E  S S    
--------------------------------|--------------------------------|  
--2--L--------------------------|--2--L-----5---3-2-----2-L------|  
-------4-------2-4--L-2-------2-|-------4-----------4-2--------2-|  
-------------4--------------4---|----------------------------4---|  
--------------------------------|--------------------------------|  
--------------------------------|--------------------------------|  
  
  
  E  S S S S S S E  S S S S S S    S S S S S S S S Q    Q         
--------------------------------|-----------------------------||  
--2--L--------------------------|--2--------------------------||  
-------4-------2-4--L-2-------2-|------4---2-----2-----------*||  
-------------4--------------4---|--------------2---4---------*||  
--------------------------------|------------4----------------||  
--------------------------------|-----------------------------||  
  
  
    [Part D]  
  
  
  S S S S S S S S S S S S S S S S    S S S S S S S S S S S S S S S S    
----------------------------------|----------------------------------|  
----------------------------------|----------------------------------|  
--------------7-------------------|--------------7-------------------|  
--4---4---4-----4---4---4-7-7-4---|--4---4---4-----4---4---4-7-7-4---|  
----------------------------------|----------------------------------|  
----------------------------------|----------------------------------|  
  
  
  S S S S S S S S S S S S S S S S    S S S S S S S S S S S S S S S S    
----------------------------------|----------------------------------|  
--------------8-------------------|----------------------------------|  
--4---4---4-----4---4---4-7-7-4---|--------------7-------------------|  
----------------------------------|--4---4---4-----4---4---4-7-7-4---|  
----------------------------------|----------------------------------|  
----------------------------------|----------------------------------|  
  
  
                                     |-3-| |-3-| |-3-| |-3-|  
  S S S S S S S S S S S S S S S S    S S S S S S S S S S S S S S S S S S S S    
--------------5-------------------|------------------------------------------|  
----------------------------------|------------------------------------------|  
--6---6---6-----4---4---4-7-7-4---|--------------7---------------------------|  
----------------------------------|--4---4---4-----4-4-4-4-4-4-4-4-4-4-4-4-4-|  
----------------------------------|------------------------------------------|  
----------------------------------|------------------------------------------|  
  

    [Part E]
 
  
  S S S S S S S S S S S S S S S S    S S S S S S S S S S S S S S S S    
----------------------------------|----------------------------------|  
----------------------------------|----------------------------------|  
----------------------------------|----------------------------------|  
----------------------------------|----------------------------------|  
----------------2-L-2-------2-----|----------------2-L-2-------2---2-|  
--2-2-4-2-5-2-4-------5-4-5-----2-|--L-2-4-2-5-2-4-------5-4-5-------|  
  
  
  S S S S S S S S S S S S S S S S    S S S S S S S S S S S S S S S S      
----------------------------------|----------------------------------|  
----------------------------------|----------------------------------|  
----------------------------------|----------------------------------|  
----------------2-L-2-------2-----|----------------------------------|  
--L-2-4-2-5-2-4-------5-4-5-------|----------------2-L-2-------2---4-|  
--------------------------------2-|--L-2-4-2-5-2-4-------5-4-5-------|  
  
  
  S S S S S S S S S S S S S S S S    S S S S S S S S S S S S S S S S    
----------------------------------|----------------------------------|  
----------------------------------|----------------------------------|  
----------------------------------|----------------------------------|  
----------------------------------|----------------------------------|  
--L-4-6-4-7-4-6-2-L-2-4-2-5-2-4---|----------------2-L-2-------2-----|  
--------------------------------2-|--L-2-4-2-5-2-4-------5-4-5-------|  
  

    [Part F]
 
  
  S S S S S S S S S S S S S S S S    S S S S S S S S S S S S S S S S    
----------------------------------|----------------------------------|  
----------------------------------|----------------------------------|  
----------------------------------|----------------------------------|  
----------------------------------|----------------------------------|  
----------------2-L-2-------2-----|----------------2-L-2-------2---2-|  
--2-2-4-2-5-2-4-------5-4-5-----2-|--L-2-4-2-5-2-4-------5-4-5-------|  
  
  
  S S S S S S S S S S S S S S S S    S S S S S S S S S S S S S S S S    
----------------------------------|----------------------------------|  
----------------------------------|----------------------------------|  
----------------------------------|----------------------------------|  
----------------2-L-2-------2-----|----------------------------------|  
--L-2-4-2-5-2-4-------5-4-5-------|----------------2-L-2-------2---4-|  
--------------------------------2-|--L-2-4-2-5-2-4-------5-4-5-------|  
  
  
  S S S S S S S S S S S S S S S S    S S S S S S S S S S S S S S S S  
----------------------------------|----------------------------------||  
----------------------------------|----------------------------------||  
----------------------------------|----------------------------------||  
----------------------------------|----------------------------------||  
--L-4-6-4-7-4-6-2-L-2-4-2-5-2-4---|----------------2-L-2-------2-----||  
--------------------------------2-|--L-2-4-2-5-2-4-------5-4-5-------||  
  
  
  
  
  
BASS  
  
  
    [Part A]  
  
                                                        |-3-| |-3-| |-3-| |-3-|  
     S S S S S S S S S S S S S S S S    S S S S S S S S S S S S S S S S S S S S  
G||----------------------------------|------------------------------------------|  
D||------------------2-2-0-0---------|------------------------------0-0-0-2-2-2-|  
A||--2-2-2-2-2-2-2-2---------4-4-0-0-|--2-2-2-2-2-2-2-2-2-2-2-4-4-4-------------|  
E||----------------------------------|------------------------------------------|  
  
  
                                     |-3-| |-3-| |-3-| |-3-|  
  S S S S S S S S S S S S S S S S    S S S S S S S S S S S S S S S S S S E  
----------------------------------|-----------------------------------------|  
------------------2-2-0-0---------|--------------------------0--------------|  
--2-2-2-2-2-2-2-2---------4-4-0-0-|--2-2-0-2-2-0-2-2-0-2-2-0---4---2--------|  
----------------------------------|------------------------------------2-L--|  
  
  
    [Part B]  
  
  
    S S S S S S S S S S S S S S S S    S S S S S S S S S S S S S S S S  
|-----------------------------------|----------------------------------|  
|*----------------------------------|----------------------------------|  
|*--2-2-2-2-2-2-2-2-2-2-2-2-2-2-2-2-|--2-2-2-2-2-2-2-2-2-2-2-2-2-2-2-2-|  
|-----------------------------------|----------------------------------|  
  
  
  S S S S S S S S S S S S S S S S    S S S S S S S S S S S S S S S S  
----------------------------------|----------------------------------|  
--2-2-2-2-2-2-2-2-2-2-2-2-2-2-2-2-|----------------------------------|  
----------------------------------|--2-2-2-2-2-2-2-2-2-2-2-2-2-2-2-2-|  
----------------------------------|----------------------------------|  
  
  
  S S S S S S S S S S S S S S S S    S S S S S S S S S S S S S S S S  
----------------------------------|----------------------------------|  
--4-4-4-4-4-4-4-4-2-2-2-2-2-2-2-2-|----------------------------------|  
----------------------------------|--2-2-2-2-2-2-2-2-2-2-2-2-2-2-2-2-|  
----------------------------------|----------------------------------|  
  
  
  S S S S S S S S S S S S S S S S    S S S S S S S S S S S S S S S S  
----------------------------------|----------------------------------|  
----------------------------------|----------------------------------|  
--2-2-2-2-2-2-2-2-2-2-2-2-2-2-2-2-|--2-2-2-2-2-2-2-2-2-2-2-2-2-2-2-2-|  
----------------------------------|----------------------------------|  
  

    [Part C]
 
  
  S S S S S S S S S S S S S S S S    S S S S S S S S S S S S S S S S  
----------------------------------|----------------------------------|  
--2-2-2-2-2-2-2-2-2-2-2-2-2-2-2-2-|--------------------------------0-|  
----------------------------------|--2-2-2-2-2-2-2-2-2-2-2-2-2-2-2---|  
----------------------------------|----------------------------------|  
  
  
  E  S S S S S S E  S S S S S S    E  S S S S S S S S S S S S S S  
--------------------------------|-------------2-0-----------------|  
--4--L-2-------0-2--L-0-------0-|--4--L-2---------4-4-0-0-------0-|  
-------------2--------------2---|-------------------------4---2---|  
--------------------------------|---------------------------------|  
  
  
  E  S S S S S S E  S S S S S S    S S S S S S S S S S S S S S S S  
--------------------------------|--------------------4-2-2-0-0------||  
--4--L-2-------0-2--L-0-------0-|--4-4-2---0-0-----------------4-4-*||  
-------------2--------------2---|--------------4-4-2---------------*||  
--------------------------------|-----------------------------------||  
  
  
    [Part D]  
  
  
  S S S S S S S S S S S S S S S S    S S S S S S S S S S S S S S S S  
----------------------------------|----------------------------------|  
----------------------------------|----------------------------------|  
--2-2-----0-0-1-1-2-2-----0-0-1-1-|--2-2-----0-0-1-1-2-2-----0-0-1-1-|  
------2-2-------------2-2---------|------2-2-------------2-2---------|  
  
  
  S S S S S S S S S S S S S S S S    S S S S S S S S S S S S S S S S  
----------------------------------|----------------------------------|  
--2-2-----0-0-1-1-2-2-----0-0-1-1-|----------------------------------|  
------2-2-------------2-2---------|--2-2-----0-0-1-1-2-2-----0-0-1-1-|  
----------------------------------|------2-2-------------2-2---------|  
  
  
  S S S S S S S S S S S S S S S S    S S S S S S S S S S S S S S S S  
----------------------------------|----------------------------------|  
--4-4-----2-2-3-3-2-2-----0-0-1-1-|----------------------------------|  
------4-4-------------2-2---------|--2-2-----0-0-1-1-2-2-----0-0-1-1-|  
----------------------------------|------2-2-------------2-2---------|  
  

    [Part E]
 
  
  S S S S S S S S S S S S S S S S    S S S S S S S S S S S S S S S S  
----------------------------------|----------------------------------|  
----------------------------------|----------------------------------|  
--2-2-2-2-2-2-2-2-2-2-2-2-2-2-2-2-|--2-2-2-2-2-2-2-2-2-2-2-2-2-2-2-2-|  
----------------------------------|----------------------------------|  
  
  
  S S S S S S S S S S S S S S S S    S S S S S S S S S S S S S S S S  
----------------------------------|----------------------------------|  
--2-2-2-2-2-2-2-2-2-2-2-2-2-2-2-2-|----------------------------------|  
----------------------------------|--2-2-2-2-2-2-2-2-2-2-2-2-2-2-2-2-|  
----------------------------------|----------------------------------|  
  
  
  S S S S S S S S S S S S S S S S    S S S S S S S S S S S S S S S S  
----------------------------------|----------------------------------|  
--4-4-4-4-4-4-4-4-2-2-2-2-2-2-2-2-|----------------------------------|  
----------------------------------|--2-2-2-2-2-2-2-2-2-2-2-2-2-2-2-2-|  
----------------------------------|----------------------------------|  
  

    [Part F]
 
  
  S S S S S S S S S S S S S S S S    S S S S S S S S S S S S S S S S  
----------------------------------|----------------------------------|  
----------------------------------|----------------------------------|  
--2-2-2-2-2-2-2-2-2-2-2-2-2-2-2-2-|--2-2-2-2-2-2-2-2-2-2-2-2-2-2-2-2-|  
----------------------------------|----------------------------------|  
  
  
  S S S S S S S S S S S S S S S S    S S S S S S S S S S S S S S S S  
----------------------------------|----------------------------------|  
--2-2-2-2-2-2-2-2-2-2-2-2-2-2-2-2-|----------------------------------|  
----------------------------------|--2-2-2-2-2-2-2-2-2-2-2-2-2-2-2-2-|  
----------------------------------|----------------------------------|  
  
  
  S S S S S S S S S S S S S S S S    S S S S S S S S S S S S S S S S  
----------------------------------|----------------------------------||  
--4-4-4-4-4-4-4-4-2-2-2-2-2-2-2-2-|----------------------------------||  
----------------------------------|--2-2-2-2-2-2-2-2-2-2-2-2-2-2-2-2-||  
----------------------------------|----------------------------------||  
  
  
  
  
Duration Legend  
---------------  
W - whole  
H - half  
Q - quarter  
E - 8th  
S - 16th  
. - note dotted  
|-n-|  - n-tuplets  
  
  
Tablature Legend  
----------------  
L - tied note  
h - hammer on  
p - pull off  


        
Comments

No comments yet