Gametabs
Home
Tabs
Random

Tsuki no Manazashi

Average rating: 5.000

3 ratings

Composer:

Tabber:

Style:

Instrument:

Created: May 10, 2016 at 12:00 AM

                                           Tsuki no manazasi
                                (月のまなざし)
                       ~ from anime "Ristorante Paradizo" ~


Music by Yuki Etoh (江藤 有希)
arranged by to*morning

Standard Tuning (E A D G B E)


     E  E  E  E  E  E     E  E  E  E  E  E     E  E  E  E  E   E     E  E  E  E  E  E   
E||--0--5-----3--------|-----0--------------|--------1-----0h--1--|--------3-----------|
B||--------3--------6--|--0--------3-----1--|--0------------------|-----0--------1--3--|
G||--------------5-----|--------2-----0-----|-----2-----0---------|-----------0--L-----|
D||--3-----------------|--2-----------------|--0------------------|--2-----------------|
A||--------------------|--------------------|---------------------|--------------------|
E||--------------------|--------------------|---------------------|--------------------|


  E  E  E  E  E  E     E  E  E  E  E  E     E  E  E  E  E  E     E  E  Q       
--0--5-----3--------|-----0--------------|--------------0-----|--------------||
--------3--------6--|--0--------3-----1--|--0--------0--------|--------0-----||
--------------5-----|--------2-----0-----|--------5--------5--|--------5----*||
--3-----------------|--2-----------------|-----6--------------|-----5-------*||
--------------------|--------------------|--0-----------------|--0-----------||
--------------------|--------------------|--------------------|--------------||


  E  E  E  E  E  E     E  E  Q       E  E  E  E  E  E     E  E  E  E  E  E   
--------------0-----|-------------|--0--5-----3-----1--|-----0--------------|
--0-----4--------4--|--------4----|--------3-----1-----|--0--------3-----1--|
-----------4--------|--------4----|--------------------|--------2-----0-----|
-----2--------------|-----2-------|--------------------|--------------------|
--4-----------------|--4----------|--------------------|--------------------|
--------------------|-------------|--1-----------------|--0-----------------|


  E  E  E  E  E  E     E  E  E  E  E  E     E  E  E  E  E  E     E  E  E  E  E  E   
--------------------|--------------------|--0--5-----3--------|-----0--------------|
--0--------------5--|--------------1--3--|--------3--------6--|--0--------3-----1--|
--------5-----5-----|-----------0--------|--------------5-----|--------2-----0-----|
-----3-----3--------|--------0-----------|--3-----------------|--2-----------------|
--5-----------------|-----2--------------|--------------------|--------------------|
--------------------|--0-----------------|--------------------|--------------------|


  E  E  E  E  Q       H        Q       E  E  E  E  E  E     E  E  E  E  E  E   
-----------0-------|----------------|--0-----------------|-----------------0--|
--0-----0----------|-----------3----|-----------3--------|--3-----------3-----|
-----1--------5----|--0-------------|--------2-----2-----|--------0-----------|
--------------6----|----------------|-----3-----------3--|-----3-----3--------|
--0----------------|--0-------------|--1-----------------|--1-----------------|
-------------------|----------------|--------------------|--------------------|


  E  E  E  E  E  E     E  E  Q    Q       E  E  E  E  E  E     E  E  E  E  Q     
--------------0-----|------------------|--------------------|-------------------|
--0--------0-----0--|------------------|--3-----------3-----|-----------3-------|
--------5-----------|--------4----5----|--------2--------2--|--------0----------|
-----5--------------|-----5------------|-----3-----3--------|-----3-------------|
--0-----------------|--0---------------|--1-----------------|--1----------------|
--------------------|------------------|--------------------|-------------------|


  E  E  E  E  Q       E  E  E  E  E  E     E  E  E  E  E  E     E  E  E  E  E  E   
--------0-----0----|--3-----------------|--------------------|-----------0--3--5--|
-----------3-------|--3-----3-----------|--------0--1--0-----|--0--1--3-----------|
--------2----------|-----------4-----4--|--------2--------2--|--0-----------------|
-----3-------------|-----2--------2-----|-----2--------------|--------------------|
--1----------------|--0-----------------|--------------------|--------------------|
-------------------|--------------------|--1-----------------|--0-----------------|


  E   E  E  E  E  E      E   E   Q     Q        Q    E  E  E  E     E   E  Q    E  E   
--7~--------5--7--8--|--10------12----------|--------------0--3--|--7~----------3--0--|
---------6-----------|--10--10--------12----|--------1--3--------|---------0----------|
------5--------------|--10------------------|--------------------|------0-------------|
--0------------------|----------------------|--------------------|--------------------|
---------------------|----------------------|--------------------|--0-----------------|
---------------------|----------------------|--------------------|--------------------|


  E  E  E  E  E  E     E  E  Q    E  E     E  E  E  E  E  E     E  E  Q    E  E   
--------------5--8--|--5----------------|-----0--------------|-------------------|
-----5--6--8--------|-----8--6----8-----|--------0-----3-----|--0-----0----------|
--------5-----------|--------0-------7--|--------5--------5--|-----2-------0-----|
-----7--------------|-------------------|-----3-----3--------|-----2----------0--|
--8-----------------|--7----------------|--5-----------------|--3----------------|
--------------------|-------------------|--------------------|-------------------|


  E  E  Q    E  E     Q    Q    Q       E  E  E  E  E  E     E  E  Q     
-------------------|-------0---------|--------------------|--------0----|
--------3----------|------------3----|--0-----0-----0-----|--------0----|
-----2----------0--|--2---------2----|--------2-----2-----|--------2----|
--2----------3-----|-------3---------|-----2-----2-----2--|-----2-------|
--1----------------|--1--------------|--------------------|-------------|
-------------------|-----------------|--0-----------------|--0----------|


  E  E  E  E  E  E     E  E  E  E  E  E     E  E  E  E  E   E     E  E  E  E  E  E   
--0--5-----3--------|-----0--------------|--------1-----0h--1--|--------3-----------|
--------3--------6--|--0--------3-----1--|--0------------------|-----0--------1--3--|
--------------5-----|--------2-----0-----|-----2-----0---------|-----------0--------|
--3-----------------|--2-----------------|--0------------------|--2-----------------|
--------------------|--------------------|---------------------|--------------------|
--------------------|--------------------|---------------------|--------------------|


  E  E  E  E  E  E     E  E  E  E  E  E     E  E  E  E  E  E     E  E  Q     
--0--5-----3-----1--|-----0--------------|--------------0-----|-------------|
--------3-----1-----|--0--------3-----1--|--0-----4--------4--|--------4----|
--------------------|--------2-----0-----|-----------4--------|--------4----|
--------------------|--------------------|-----2--------------|-----2-------|
--------------------|--------------------|--4-----------------|--4----------|
--1-----------------|--0-----------------|--------------------|-------------|


  E  E  E  E  E  E     E  E  E  E  E  E     E  E  E  E  E  E     E  E  E  E  E  E   
--0--5-----3-----1--|-----0--------------|--------------------|--------------------|
--------3-----1-----|--0--------3-----1--|--0--------------5--|--------------1--3--|
--------------------|--------2-----0-----|--------5-----5-----|-----------0--------|
--------------------|--------------------|-----3-----3--------|--------0-----------|
--------------------|--------------------|--5-----------------|-----2--------------|
--1-----------------|--0-----------------|--------------------|--0-----------------|


  E  E  E  E  E  E     E  E  E  E  E  E     E  E  E  E  Q       H        Q     
--0--5-----3--------|-----0--------------|-----------0-------|----------------|
--------3--------6--|--0--------3-----1--|--0-----0----------|-----------3----|
--------------5-----|--------2-----0-----|-----1--------5----|--0-------------|
--3-----------------|--2-----------------|--------------6----|----------------|
--------------------|--------------------|--0----------------|--0-------------|
--------------------|--------------------|-------------------|----------------|


  E  E  E  E  E  E     E  E  E  E  E  E     E  E  E  E  E  E     E  E  Q    Q     
--0-----------------|-----------------0--|--------------0-----|------------------|
-----------3--------|--3-----------3-----|--0--------0-----0--|------------------|
--------2-----2-----|--------0-----------|--------5-----------|--------4----5----|
-----3-----------3--|-----3-----3--------|-----5--------------|-----5------------|
--1-----------------|--1-----------------|--0-----------------|--0---------------|
--------------------|--------------------|--------------------|------------------|


  E  E  E  E  E  E     Q      
--------------------|-------||
--3-----------3-----|--3----||
--------2--------2--|--0----||
-----3-----3--------|--3----||
--1-----------------|--1----||
--------------------|-------||  fine...
        
Comments

@coobs (May 11, 2021 at 10:35 PM)

fun