Gametabs
Home
Tabs
Random

The Harbor City

Average rating: 5.000

3 ratings

Composer:

Tabber:

Style:

Instrument:

Created: February 14, 2014 at 12:00 AM

            			      Harbor City
			         Risen
		            Kai Rosenkranz

Tune: Standard



E||--------0h-1-3/5----------|--3--------------------|
B||-----3-----------------6--|--------3--------------|
G||--2-----------------2-----|-----0-----2/4---------|
D||--0--------------2--------|-----------------------|
A||--------------------------|-----------------------|
E||--------------------------|--3--------------------|

--------0h-1-3/8-------7--|--5-----5---------------|--5--3--7--5-5/8--7------|
-----3--------------------|--3-----0------------3--|----------------------8--|
--2-----------------7-----|--2-----0------2--4-----|-------------------------|
--0--------------7--------|--0---------------------|-------------------------|
--------------------------|------------------------|-------------------------|
--------------------------|--------3---------------|-------------------------|

--5-----5-----------------|--5-----5--------3---5--|--5--------------------5-5/10--|
--3-----0--------------3--|--3-----3---------------|--3-----------------3----------|
--2-----0-----0--2--4-----|--0-----0---------------|--2--------------2-------------|
--0--0-----0--------------|------------------------|--0-----0--2--3----------------|
--------------------------|--3---------------------|-----0-------------------------|
--------3-----------------|--0---------------------|-------------------------------|

-------------------------------|--------5-----5/8--------7--|--5-----5---------------|
-------------------------------|-----3-----3----------------|--3-----0---------------|
------<>12---------------------|--2-------------------------|--2-----0-----<>12------|
--<>7-------------<>12-<>12----|--0-------------------7-----|--0---------------------|
--------------<>7--------------|--0----------------7--------|------------------------|
-------------------------------|----------------------------|--------3---------------|

----------10----------10--|--------------------------|-------------/10---------|
-------10----------10-----|--------------------------|-------------------------|
--------------------------|--------------------------|-----------7-------0--7--|
-----7-----------9--------|--------------------------|--------3----------------|
--8-----------10----------|--------------------------|-----5-----------7-------|
--------------------------|--------------------------|--6-----------8----------|

-----------------------5--|--6-----------5-----------|-----------------------5--|
--------------------8-----|--------6-----------6-----|--------------------8-----|
--------------------------|-----7-----7--------------|--0--------2/3------------|
--------------------------|--8--------------7-----7--|--------0-----------------|
--------------------------|--------------8-----------|--------------------------|
--------------------------|--------------------------|-----3--------------------|

--6-----------8-----------|--------------------------|
-------------------10--8--|--------------------------|
--------------------------|--0--------2/3------------|
-----0-----8-----7--------|--------0-----------------|
--------8-----8-----------|--------------------------|
--6-----------------------|-----3--------------------|

--1----------3/5----------|--------------------------|
--3-----------------6-----|--6--------3--5-----------|
--2-----2-----------------|--------3-----------------|
-----0-----0-----0-----0--|--------------------------|
--------------------------|-----5--------------------|
--------------------------|--3-----------------------|

--1-----------5-----------|--------------------------|
--3-----------------6-----|--6--------3--5-----------|
--2-----2-----------------|--------3-----3-----------|
-----0-----0-----0-----0--|--------------------------|
--------------------------|-----5--------------------|
--------------------------|--3-----------------------|

--4/5----------6----6/10----|--10------10-8----------|
------------------6---------|---------------------8--|
------------5---------------|-----7--9---------9-----|
---------8------------------|---------------10-------|
------8---------------------|------------------------|
---6------------------------|--8----------8----------|

--------------6----8/10-----|--10------10-8-------------|
-----------6-----6----------|---------------------------|
--------7-------------------|-----7--9------------------|
-----8----------------------|---------------------------|
----------------------------|---------------------------|
--6-------------------------|--8------------------------|

--10-----------------------------------------------------|
--10-----------------------------------------------------|
---------------------------<>12--------------------------|
--0----------<>12----------------------------------------|
---------------------------------------------------------|
---------------------------------------------------------|

--------0--1--5-------------|--3-------------------------|
--3----------------------6--|--------3-------------------|
----------------------------|----------------------------|
--0-------------------------|----------------------------|
--------------0-------------|----------------------------|
----------------------------|--3-------------------------|

--------------8----------7--|--5-----5----------------3--|
--------5--6----------------|----------------------------|
--7-------------------------|----------------------------|
--0-------------------------|----------------------------|
--------------0-------------|----------------------------|
----------------------------|--3-------------------------|

--5-------------------------|--10------------------------|--13------------------------|
--6-------------------------|--10------------------------|--15------------------------|
----------------------------|--10------------------------|--14------------------------|
--0-------------------------|----------------------------|----------------------------|
----------------------------|----------------------------|----------------------------|
----------------------------|----------------------------|----------------------------|
        
Comments

No comments yet