Gametabs
Home
Tabs
Random

Working Dough

Average rating: No ratings

Composer:

Tabber:

Style:

Instrument:

Created: April 05, 2012 at 12:00 AM

            Working Dough
Rhythm Heaven Fever
Composed by Mitsuo Terada
Tabbed by hslesperance
3/30/12

Standard Tuning


Guitar

e----------------------------------------------------------
B---14----12----14-----------------------------------------
G----------------------------------------------------------
D-------------------------11----9----11--------------------
A----------------------------------------------------------
E----------------------------------------------------------

e----------------------------------------------------------
B----------------------------------------------------------
G---13--13--13----13--13--13-------------------------------
D----------------------------------------------------------
A-------------------------------11--11--11----11--11--11---
E----------------------------------------------------------

e----------------------------------------------------------
B---14--14----14--14----14--14----14--14-------------------
G----------------------------------------------------------
D----------------------------------------------------------
A----------------------------------------------------------
E----------------------------------------------------------

e----------------------------------------------------------
B----------------------------------------------------------
G---13--13----13--13----13--13----13--13-------------------
D----------------------------------------------------------
A----------------------------------------------------------
E----------------------------------------------------------

e----------------------------------------------------------
B----------------------------------------------------------
G---11----11----11-----------------------------------------
D----------------------------------------------------------
A-------------------------9----9----9----------------------
E----------------------------------------------------------

e----------------------------------------------------------
B---------------------14-----------------------------------
G-----------------------------------------6----------------
D---11--11------11-----------------------------------------
A------------14--------------------------------------------
E---------------------------9--9---7-9---------------------

e----------------------------------------------------------
B----------------------------------------------------------
G---11--11--9--11------------------------------------------
D----------------------------------------------------------
A------------------------9--9--7--9------------------------
E----------------------------------------------------------

e----------------------------------------------------------
B----------------------------------------------------------
G---13--13--13--11--13----13-------------------------------
D----------------------------------------------------10----
A-------------------------------11--11--11--9--11----------
E----------------------------------------------------------

e----------------------------------------------------------
B---14------12--14-----------------------------------------
G----------------------------------------------------------
D-------------------------11------9--11--------------------
A----------------------------------------------------------
E----------------------------------------------------------

e----------------------------------------------------------
B----------------------------------------------------------
G---13--13--13----11--13-----------------------------------
D----------------------------------------------------------
A---------------------------11--11--11----9--11------------
E----------------------------------------------------------

e----------------------------------------------------------
B---14------12----14--14-----------------------------------
G----------------------------------------------------------
D---------------------------11------9----11--11------------
A----------------------------------------------------------
E----------------------------------------------------------

e----------------------------------------------------------
B----------------------------------------------------------
G---13--13--13----13---------------------------------------
D----------------------------------------------------------
A-------------------------11--11--11----11-----------------
E----------------------------------------------------------

e----------------------------------------------------------
B----------------------------------------------------------
G---11------9----------------------------------------------
D----------------------------------------------------------
A--------------------9-------------------------------------
E---------------------------12-----------------------------

e-----------9----------------------------------------------
B----------------------------------------------------------
G----------------------------------------------------------
D---11----------------------11-----------------------------
A----------------------------------------------------------
E--------------------9-------------------------------------

e----------------------------------------------------------
B----------------------------------------------------------
G---11---9-11----------------------------------------------
D----------------------------------------------------------
A--------------------9--------9----------------------------
E--------------------------12------------------------------

e----------------------------------------------------------
B----------------------------------------------------------
G---13--13--13--13----11-----------------------------------
D-----------------------------------------------10---------
A-----------------------------11--11--11--11---------------
E----------------------------------------------------------

e----------------------------------------------------------
B---14--14--14--12--14----14----14----14---14-12--14-------
G----------------------------------------------------------
D----------------------------------------------------------
A----------------------------------------------------------
E----------------------------------------------------------

e----------------------------------------------------------
B----------------------------------------------------------
G----------------------------------------------------------
D----------------------------------------------------------
A---11--11--11--9--11----11----11----11---11-9--11---------
E----------------------------------------------------------

e---------------------------12-----------------------------
B---14----14----12----14----------14---12-14---------------
G----------------------------------------------------------
D----------------------------------------------------------
A----------------------------------------------------------
E----------------------------------------------------------

e----------------------------------------------------------
B----------------------------------------------------------
G----------------------------------------------------------
D----------------------------------------------------------
A---11----11----9----11----12----11---9-11-----------------
E----------------------------------------------------------

e----------------------------------------------------------
B----------------------------9-----------------------------
G---11----11------9----11---------11---9-11----------------
D----------------------------------------------------------
A----------------------------------------------------------
E----------------------------------------------------------

e----------------------------------------------------------
B----------------------------------------------------------
G----------------------------------------------------------
D----------------------------------------------------------
A------------------------7---------------------------------
E---9----9------7---9---------9----7--9--------------------

e----------------------------------------------------------
B----------------------------------------------------------
G---11--11--11--11--11--11--11--11--11--11----11--11-------
D----------------------------------------------------------
A----------------------------------------------------------
E----------------------------------------------------------

e----------------------------------------------------------
B----------------------------------------------------------
G----------------------------------------------------------
D----------------------------------------------------------
A---11--11--11--11--11--11--11--11--11--11----11--11-------
E----------------------------------------------------------

e----------------------------------------------------------
B---14------------------14---------------------------------
G----------------------------------------------------------
D-------------11------------------11-----------------------
A----------------------------------------------------------
E----------------------------------------------------------

e----------------------------------------------------------
B----------------------------------------------------------
G---13--------------------13-------------------------------
D----------------------------------------------------------
A-------------11--------------------11---------------------
E----------------------------------------------------------

e----------------------------------------------------------
B---14--14---14-14-----------------------------------------
G----------------------------------------------------------
D-------------------------11--11---11-11-------------------
A----------------------------------------------------------
E----------------------------------------------------------

e----------------------------------------------------------
B----------------------------------------------------------
G---13----13----13-----------------------------------------
D----------------------------------------------------------
A-------------------------11----11----11-------------------
E----------------------------------------------------------

e----------------------------------------------------------
B----------------------------------------------------------
G---11-----------------------------------------------------
D----------------------------------------------------------
A----------------------------------------------------------
E-------------------------9--------------------------------

e----------------------------------------------------------
B----------------------------------------------------------
G---11---11-11---------------------------------------------
D----------------------------------------------------------
A-----------------------9---9-9----------------------------
E----------------------------------------------------------

e----------------------------------------------------------
B---9---9---9----------------------------------------------
G----------------------------------------------------------
D--------------------10---10---10--------------------------
A----------------------------------------------------------
E----------------------------------------------------------

e----------------------------------------------------------
B---14----12----14--------14----12----14-------------------
G----------------------------------------------------------
D-------------------------11-----9----11-------------------
A----------------------------------------------------------
E----------------------------------------------------------




Bass

0:07
G----------------------------------------------------------
D---------2-----4--4--2--1--------2-----4--4--2--1---------
A---4--4-----4--------------4--4-----4---------------------
E----------------------------------------------------------

G----------------------------------------------------------
D---------------1--1--------------------1--1---------------
A---------2-----------4--2--------2-----------4--2---------
E---4--4-----4--------------4--4-----4---------------------

G----------------------------------------------------------
D---------2-----4--4--2--1--------2-----4--4--2--1---------
A---4--4-----4--------------4--4-----4---------------------
E----------------------------------------------------------

G----------------------------------------------------------
D---------------1--1--------------------1--1---------------
A---------2-----------4--2--------2-----------4--2---------
E---4--4-----4--------------4--4-----4---------------------

0:21
G----------------------------------------------------------
D----------------------------------------------------------
A---------------4--4--2-----------------4--4--2------------
E---2--2--5--2-----------5--2--2--5--2-----------5---------

G----------------------------------------------------------
D---------2-----4--4--2--1--------1------------------------
A---4--4-----4--------------4--4-----2--4------------------
E----------------------------------------------------------

G----------------------------------------------------------
D----------------------------------------------------------
A---------------4--4--2-----------------4--4--2------------
E---2--2--5--2-----------5--2--2--5--2-----------5---------

G----------------------------------------------------------
D---------------1--1---------------------------------------
A---------2-----------4--2---------------------------------
E---4--4-----4--------------4--4--4--2--4----4-------------

0:35
G----------------------------------------------------------
D---------2-----4--4--2--1--------2-----4--4--2--1---------
A---4--4-----4--------------4--4-----4---------------------
E----------------------------------------------------------

G----------------------------------------------------------
D---------------1--1---------------------------------------
A---------2-----------4--2---------------------------------
E---4--4-----4--------------4--4--4------2--4--------------

G----------------------------------------------------------
D---------2-----4--4--2--1--------2-----4--4--2--1---------
A---4--4-----4--------------4--4-----4---------------------
E----------------------------------------------------------

G----------------------------------------------------------
D---------------1--1---------------------------------------
A---------2-----------4--2---------------------------------
E---4--4-----4--------------4--4--4------4-----------------

0:48
G----------------------------------------------------------
D----------------------------------------------------------
A---------------4--4--2-----------------4--4--2------------
E---2--2--5--2-----------5--2--2--5--2-----------5---------

G----------------------------------------------------------
D---------2-----4--4--2--1---------------------------------
A---4--4-----4------------------4------4-------------------
E----------------------------------------------------------

G----------------------------------------------------------
D----------------------------------------------------------
A---------------4--4--2-----------------4--4--2------------
E---2--2--5--2-----------5--2--2--5--2-----------5---------

G----------------------------------------------------------
D---------------1--1---------------------------------------
A---------2-----------4--2---------------------------------
E---4--4-----4--------------4--4--4--4----4----------------

1:02
G----------------------------------------------------------
D---------2-----4--4--2--1--------2-----4--4--2--1---------
A---4--4-----4--------------4--4-----4---------------------
E----------------------------------------------------------

G----------------------------------------------------------
D---------------1--1---------------------------------------
A---------2-----------4--2-------------------2-------------
E---4--4-----4--------------4---4---4--2--4-----4----------

G----------------------------------------------------------
D---------2-----4--4--2--1--------2-----4--4--2--1---------
A---4--4-----4--------------4--4-----4---------------------
E----------------------------------------------------------

G----------------------------------------------------------
D---------------1--1--------------------1--1---------------
A---------2-----------4--2--------2-----------4--2---------
E---4--4-----4--------------4--4-----4---------------------

1:16
G----------------------------------------------------------
D----------------------------------------------------------
A---------------4--4--2-----------------4--4--2------------
E---2--2--5--2-----------5--2--2--5--2-----------5---------

G----------------------------------------------------------
D---------2-----4--4--2--1-----1--2------------------------
A---4--4-----4--------------4--------4--2--4--2------------
E------------------------------------------------4---------

G----------------------------------------------------------
D----------------------------------------------------------
A---------------4--4--2-----------------4--4--2------------
E---2--2--5--2-----------5--2--2--5--2-----------5---------

G----------------------------------------------------------
D---------------1--1---------------------------------------
A---------2-----------4--2---------------------------------
E---4--4-----4--------------4--4----4--4-------------------

1:29
G----------------------------------------------------------
D---------2-----4--4--2--1--------2-----4--4--2--1---------
A---4--4-----4--------------4--4-----4---------------------
E----------------------------------------------------------

G----------------------------------------------------------
D---------------1--1---------------------------------------
A---------2-----------4--2---------------------------------
E---4--4-----4----------------4------4---------------------

G----------------------------------------------------------
D---------2-----4--4--2--1--------2-----4--4--2--1---------
A---4--4-----4--------------4--4-----4---------------------
E----------------------------------------------------------

G----------------------------------------------------------
D---------------1--1---------------------------------------
A---------2-----------4--2---------------------------------
E---4--4-----4----------------4----4----4------------------

1:43
G----------------------------------------------------------
D----------------------------------------------------------
A----------------------------------------------------------
E---2------------------------------------------------------

1:50
G----------------------------------------------------------
D----------------------------------------------------------
A----------------------------------------------------------
E---2--2--2--2--2--2--2--2--2--2--2--2--2--2--2--2---------

G----------------------------------------------------------
D----------------------------------------------------------
A----------------------------------------------------------
E---4--4--4--4--4--4--4--2--4--4---4---4----4--2-----------

1:57
G----------------------------------------------------------
D---------2-----4--4--2--1---------------------------------
A---4--4-----4--------------4------------------------------
E----------------------------------------------------------

        
Comments

No comments yet