Gametabs
Home
Tabs
Random

Nirinsou

Average rating: 5.000

4 ratings

Composer:

Tabber:

Style:

Instrument:

Created: May 03, 2014 at 12:00 AM

            		Journey
                                
Rewrite
Hosoi Soshi
Guitar Arrangement by Basisti94 (Miro Laaksonen)
3.5.2014


Tempo ~ 93
     ^                         ^                       
     E  E  E  Q    E  E  E     E  E  E  Q    E  E  E   
E||-----3--3-------3--3-----|-----3--3-------3--3-----|
B||--1--------1----------1--|--L--------1----------1--|
G||--0----------------------|--2----------------------|
D||--2----------------------|--3----------------------|
A||-------------------------|-------------------------|
D||-------------------------|-------------------------|


  ^                         ^                         ^                     
  E  E  E  Q    E  E  E     E  E  E  Q    E  E  E     Q.     Q    E  E  E   
-----3--3-------3--3-----|-----3--3-------1--0-----|-----------------------|
--L--------1----------1--|--L--------1----------3--|--1-----------0--1--3--|
--0----------------------|--2----------------------|--2------0-------------|
--2----------------------|--3----------------------|--0------2-------------|
-------------------------|-------------------------|-----------------------|
-------------------------|-------------------------|-----------------------|


  ^      ^              ^                       ^                     
  Q.     Q.     Q       Q.     Q    E  E  E     H        E  E  E  E   
--0------3------1----|--0--------------------|--3--------L-----------|
--1------0-----------|--1--------------1--3--|--3--------L-----1--3--|
--2------0-----------|--2-----------2--------|--0--------L--2--------|
--3------2-----------|--0------0-------------|-----------------------|
---------------------|-----------------------|-----------------------|
---------------------|-----------------------|-----------------------|


  ^                      ^                      ^                 
  Q.     E  Q.     E     Q.     E  Q.     E     W                 
--0---------3------1--|--0---------3------1--|--0----------------|
--1------3------------|--0------3------------|--3----------------|
--2-------------------|--0-------------------|--2----------------|
--3-------------------|--2-------------------|--0----------------|
----------------------|----------------------|-------------------|
----------------------|----------------------|-------------------|


  ^                       ^                      ^                    
  H        E  E  E  E     Q.     E  Q.     E     Q.     E  Q.     E   
--L--------------------|--0---------3------1--|--0---------7------3--|
-----------------1--3--|--1------3------------|--0------3------------|
--0--------L--2--------|--2-------------------|--0-------------------|
--2--------L-----------|--3-------------------|--2-------------------|
--3--------L-----------|----------------------|----------------------|
-----------------------|----------------------|----------------------|


  W                   Q    Q    Q    Q       E  E  E  E  E  E  Q     
--0----------------|-----------------0----|--0----------------------|
-------------------|----------------------|-----------3--3----------|
--0----------------|------------0---------|-------------------------|
--2----------------|-------2--------------|--------0--------2-------|
--3----------------|--3-------------------|-----0--------------0----|
-------------------|----------------------|--0----------------------|


  E  E  E  Q    E  E  E     E  E  E  E  E  E  Q       E  E  E  E  Q    Q     
-------------------------|--------------0----------|--L-----------0----3----|
--L----------------3-----|--3--------1-----1-------|--------1--3------------|
-----------2-------------|--------0-----------0----|-----0------------------|
--------0-------2--0-----|-----2-------------------|------------------------|
-----0----------------0--|--3----------------------|--3---------------------|
--0----------------------|-------------------------|------------------------|


  ^         ^            ^         ^            ^                      
  Q    Q    Q    Q       Q    Q    Q    Q       Q.     E  E  E  E  E   
--5----3----0---------|--0----3--------------|--0------------------0--|
------------0----3----|--3---------1----3----|--0------------0--3-----|
--2---------0---------|--2---------0---------|--2---------2-----------|
--3---------2---------|--0---------2---------|--2------2--------------|
----------------------|------------3---------|------------------------|
----------------------|----------------------|------------------------|


  ^                                                                           
  H        E  E  E  E     E  E  E  E  E  E  E  E     E  E  E  E  E  E  E  E   
--0--------L-----------|--------------3-----------|--------------3--------1--|
--0--------L-----1--3--|--5--------3-----------6--|--5--------3--------------|
--1--------L--2--------|--------------------------|-----------------2--------|
--2--------L-----------|--------3--------7--5-----|--------2-----------5-----|
-----------------------|-----3--------------------|-----2--------------------|
-----------------------|--3-----------------------|--2-----------------------|


  E  E  E  Q    E   E  E     E  E  E  Q    E  E  E     E  E  E  E  E  E  E  E   
--0-----------------------|-----------0-------------|--------------3-----------|
--------------------------|--------1----------1--3--|--5--------3-----------6--|
-----------2----2p--0--2--|-----0----------2--------|--------------------------|
--------0-----------------|-------------------------|--------3--------7--5-----|
-----0--------------------|--3----------------------|-----3--------------------|
--0-----------------------|-------------------------|--3-----------------------|


  E  E  E  E  E  E  E  E     E  E  Q    E  E  Q       E  E  Q    E  E  Q     
--------------7-----------|--0---------------------|-------------------0----|
--5--------3-----------8--|--------1----------0----|-------------------0----|
--------------------0-----|------------------------|--------5---------------|
--------2--------7-----7--|-----2----------2-------|-----2----------2-------|
-----2--------------------|--0----------0----------|------------------------|
--2-----------------------|------------------------|--5----------5----------|


  E  E  E  E  E  E  E  E     E  E  E  E  E  E  E  E   
--0-----------------------|--------------------------|
-----------3--3-----------|--------------------3-----|
--------------------------|--------------------------|
--------0-----------2-----|--------0-----3-----2-----|
-----0-----0-----0-----0--|-----0-----0-----0-----0--|
--0-----------------------|--0-----------------------|


                                                      ^         ^          
  E  E  E  E  E  E  E  E     E  E  E  E  Q    Q       Q    Q    Q    Q     
--------------0-----------|--------------0----3----|--5----3----0---------|
--3--------1--------------|--------1--3------------|------------0----3----|
--------0-----------0-----|-----0------------------|--2---------0---------|
-----2-----------2-----2--|------------------------|--3---------2---------|
--3-----------------------|--3---------------------|----------------------|
--------------------------|------------------------|----------------------|


  ^         ^                     ^      ^                                
  Q    Q    Q    Q       E  E  E  Q.     Q       E  E  E  E  E  E  E  E   
--0----3--------------|--0--------------------|--------------------------|
--3---------1----3----|-----------0------0----|--------------0-----1--3--|
--2---------0---------|-----------2------2----|-----------1-----2--------|
--0---------2---------|--------2--2------2----|--------2-----------------|
------------3---------|-----2-----------------|-----2--------------------|
----------------------|--2--------------------|--2-----------------------|


  E  E  E  E  E  E  E  E     E  E  E  E  E  E  E  E   
--------------3-----------|--------------3--------1--|
--5--------3-----------6--|--5--------3--------------|
--------------------------|-----------------2--------|
--------3--------7--5-----|--------2-----------5-----|
-----3--------------------|-----2--------------------|
--3-----------------------|--2-----------------------|


  E  E  E  Q    E   E  E     E  E  E  Q    E  E  E     E  E  E  E  E  E  E  E   
--0-----------------------|-----------0-------------|--------------3-----------|
--------------------------|--------1----------1--3--|--5--------3-----------6--|
-----------2----2p--0--2--|-----0----------2--------|--------------------------|
--------0-----------------|-------------------------|--------3--------7--5-----|
-----0--------------------|--3----------------------|-----3--------------------|
--0-----------------------|-------------------------|--3-----------------------|


  E  E  E  E  E  E  E  E     E  E  Q    E  E  Q       E  E  Q    E  E  Q     
--------------7-----------|--0---------------------|-------------------0----|
--5--------3-----------8--|--------1----------0----|-------------------0----|
--------------------0-----|------------------------|--------5---------------|
--------2--------7-----7--|-----2----------2-------|-----2----------2-------|
-----2--------------------|--0----------0----------|------------------------|
--2-----------------------|------------------------|--5----------5----------|


  E  E  E  E  E  E  E  E     E  E  E  E  E  E  E  E   
--0-----------------------|--------------------------|
-----------3--3-----------|--------------------3-----|
--------------------------|--------------------------|
--------0-----------2-----|--------0-----3-----2-----|
-----0-----0-----0-----0--|-----0-----0-----0-----0--|
--0-----------------------|--0-----------------------|


                                                      ^         ^          
  E  E  E  E  E  E  E  E     E  E  E  E  Q    Q       Q    Q    Q    Q     
--------------0-----------|--------------0----3----|--5----3----0---------|
--3--------1--------------|--------1--3------------|------------0----3----|
--------0-----------0-----|-----0------------------|--2---------0---------|
-----2-----------2-----2--|------------------------|--3---------2---------|
--3-----------------------|--3---------------------|----------------------|
--------------------------|------------------------|----------------------|


  ^         ^            ^         ^            ^                          
                                                         |--6-|  |--6--|   
  Q    Q    Q    Q       Q    Q    Q    Q       H        Q    E  E  E  E   
--0----3----8----7----|--5----7----3----1----|--0-------------------------|
--3-------------------|----------------------|----------------------1--3--|
--2---------0---------|------------3---------|-----------0----2--3--------|
--0-------------------|--0---------3---------|--0-------------------------|
------------3---------|--2---------1---------|----------------------------|
----------------------|----------------------|--5-------------------------|


                             ^                         ^                       
  |--3--|                                                                      
  E  E  E  H        E  E     E  E  E  Q    E  E  E     E  E  E  Q    E  E  E   
--0--1--0--L--------L-----|-----3--3-------3--3-----|-----3--3-------3--3-----|
-----------------------3--|--1--------1----------1--|--L--------1----------1--|
--------------------------|--0----------------------|--2----------------------|
--------------------------|--2----------------------|--3----------------------|
--------------------------|-------------------------|-------------------------|
--------------------------|-------------------------|-------------------------|


  ^                         ^                                                  
  E  E  E  Q    E  E  E     E  E  E  Q    E  E  E     E  E  E  E  E  E  E  E   
-----3--3-------3--3-----|-----3--3-------1--0-----|--------------------------|
--L--------1----------1--|--L--------1----------3--|-----8--8--------8--8-----|
--0----------------------|--2----------------------|--5--------5-----------5--|
--2----------------------|--3----------------------|--------------------------|
-------------------------|-------------------------|--------------------------|
-------------------------|-------------------------|--6-----6-----6-----6-----|


  E  E  E  E  E  E  E  E     E  E  E  E  E  E  E  E   
--------------------------|-----3--3--------3--3-----|
-----8--8--------8--8-----|--------------------------|
--L--------5-----------5--|--L--------5-----------5--|
--------------------------|--------------------------|
--------------------------|--3-----3-----3-----3-----|
--8-----8-----8-----8-----|--------------------------|


  E  E  E  E  E  E  E  E     E  E  E  E  E  E  E  E   
-----3--3--------3--3-----|--------------0-----3--1--|
--------------------------|--------1--3-----3--------|
--L--------5-----------5--|-----2--------------------|
--------------------------|--3-----------------------|
--3-----3-----3-----3-----|--------------------------|
--------------------------|--------------------------|


  ^           ^              ^                                     
  E  E  E  E  E  E  E  E     W                   W                 
--0-----3--1--0-----7--3--|--0----------------|-------------------|
--0--3--------3--3--------|--0----------------|-------------------|
--0-----------2-----------|--0----------------|-------------------|
--2-----------0-----------|--2----------------|-------------------|
--------------------------|--3----------------|--3----------------|
--------------------------|-------------------|-------------------|


-------------------||
-------------------||
-------------------||
-------------------||
-------------------||
-------------------||




Duration Legend
---------------
W - whole
H - half
Q - quarter
E - 8th
S - 16th
T - 32nd
X - 64th
. - note dotted
|-n-|  - n-tuplets


Tablature Legend
----------------
L - tied note
x - dead note
g - grace note
(n) - ghost note
> - accentuded note
NH - natural harmonic
AH - artificial harmonic
TH - tapped harmonic
SH - semi harmonic
PH - pitch harmonic
h - hammer on
p - pull off
b - bend
S - shift slide
s - legato slide
/ -  slide into from below or out of upwards
\ -  slide into from above or out of downwards
~ - vibrato
T - tapping
S - slap
P - pop
< - fade in
^ - brush up
v - brush down

        
Comments

No comments yet