Gametabs
Home
Tabs
Random

Well Dressed Up

Average rating: No ratings

Composer:

Tabber:

Style:

Instrument:

Created: December 21, 2011 at 12:00 AM

                       Resident Evil 3: Nemesis - Well Dressed Up BASS TAB
                 Composed by Masami Ueda and Saori Maeda

                 Tabbed by auriplane ([email protected])



Four-string bass, standard tuning.

   Q.          E   Q.          E    Q.          E   E   Q       E
G |--------------------------------|--------------------------------|
D |----------------------------1/2-|L-----------2---2---------------|
A |2-----------2---L---------------|--------------------2-----------|
E |--------------------------------|----------------------------2---|

   Q.          E   Q.          E    E   Q       E   Q.          E
G |--------------------------------|--------------------------------|
D |----------------------------2/4-|2---2-------2---L-----------3/4-|
A |2-----------2---L---------------|--------------------------------|
E |--------------------------------|--------------------------------|

   Q.          E   H                Q.          E   E   Q       E
G |--------------------------------|--------------------------------|
D |--------------------------------|1/2---------2---L---------------|
A |2-----------2---L---------------|--------------------2-----------|
E |--------------------------------|----------------------------2---|

   Q.          E   Q       Q        E   Q       E   Q.          E
G |--------------------------------|--------------------------------|
D |------------------------2/4-----|2---2-------2---L---------------|
A |2-----------2---L---------------|----------------------------1---|
E |--------------------------------|--------------------------------|



        
Comments

No comments yet