Gametabs
Home
Tabs
Random

Theme of Payon

Average rating: 5.000

2 ratings

Composer:

Tabber:

Style:

Instrument:

Created: February 08, 2014 at 12:00 AM

            Theme of Payon
Ragnarok Online
Composed by SoundTeMP

E|--0-------3--0---5-3-3--5-3----------1-0-0-------
B|--------1-------------------------0------------1-
G|------0--------------2----------0------------0---
D|----2------------3------------0------------2-----
A|--3-------------------------2------------3-------
E|--------------------------3----------------------


E|-0-3-8--10-7---------------------0--------1p0---1p0----0-1----------3-5-7-8-7-8--3-------
B|-------------8-------10--10-8----------1------3-----3------1-1--3-4----------------------
G|---------------9--------------10-----0--------2-----2----2--------0------------------0---
D|------------------10---------------2----------3-----3----3-------------------------2-----
A|-0---------7---------8-----------3--------------------------------------------7--3-------
E|-----------------------------------------------------------------------------------------




E|--0-3---5--8-5-----3------0---------0-0-----------
B|-----------------3---5--3-------1-3-----3-0-------
G|------2--------4--------------0-------------1-----
D|----3--------5--------------2-----------------2---
A|--------------------------3---------------------2-
E|--------------------------------------0-----------



0-3--5--8-5-3---3-5-3-5-------5----0-7-8-0-7-8----
--------------5-------------5---------------------
--2---------------4-------5-----------------------
--3-------5-------------7-------------------------
----------------------0---------------------------
--------------------------------------------------





        
Comments

@MissingTime (June 11, 2014 at 7:06 PM)

here's a video of these tabs being played: http://www.youtube.com/watch?v=jv0tTPs8ugg&feature=youtu.be


@gaebdawwg (September 04, 2021 at 3:00 AM)

i like your tabs! :)