Gametabs
Home
Tabs
Random

Theme of Morroc

Average rating: 5.000

2 ratings

Composer:

Tabber:

Style:

Instrument:

Created: December 22, 2011 at 12:00 AM

            Theme of Morroc                             
from Ragnarök Online
originally composed by Kwak Dong-Il
arranged by Marcus Kasperski

Standard Tuning | Moderato

                                V                                     IV                     
     W                   Q.     E  E.  E.  E     H        H           E.  E.  E  E.  E.  E   
E||-------------------|---------8--8---7---5--|--5-----------------|--5---7---5--7---5---7--|
B||-------------------|-----------------------|--------------------|------------------------|
G||-------------------|-----------------------|--------------------|------------------------|
D||-------------------|-----------------------|--------------------|------------------------|
A||-------------------|-----------------------|--------------------|------------------------|
E||-------------------|-----------------------|--------------------|------------------------|


                                                                          III                     
                                 |-3-|                                                            
    Q.     Q.     Q       Q.     S S S E.  E.  E     H        H           E.  E.  E  E.  E.  S S  
--7g5------4-----------|---------7-7-7-7---5---4--|--4-----------------|--4----------------------|
-----------------------|--------------------------|--------------------|------6---5--5---3-----3-|
-----------------------|--------------------------|--------------------|---------------------5---|
-----------------------|--------------------------|--------------------|-------------------------|
-----------------------|--------------------------|--------------------|-------------------------|
-----------------------|--------------------------|--------------------|-------------------------|


    H        H           H        Q.     E     E.  E.  E  E.  E.  E     E.  E.  E  E.  E.  E   
----------------------|---------------------|--6---6---6--6---5---5--|--5---3---3--3----------|
--3g5-----------------|------------------5--|------------------------|-----------------6---5--|
----------------------|---------------------|------------------------|------------------------|
----------------------|---------------------|------------------------|------------------------|
----------------------|---------------------|------------------------|------------------------|
----------------------|---------------------|------------------------|------------------------|


                                V                                                               
    H        H           Q.     E  Q    Q       E.  E.  E  E.  E.  E     E.  E.  E  E.  E.  E   
--4g5-----------------|-----------------5----|--7---7---7--7---5---5--|--5---------------------|
----------------------|---------6--8---------|------------------------|------8---8--8---6---4--|
----------------------|----------------------|------------------------|------------------------|
----------------------|----------------------|------------------------|------------------------|
----------------------|----------------------|------------------------|------------------------|
----------------------|----------------------|------------------------|------------------------|


                               V                                             III              
    W                   Q.     E  E.  E.  S S    H        H           Q.     E   E.  E.  S S  
---------------------|------------------------|--------------------|-------------------------|
--4g5----------------|---------5--6---5-------|--------------------|---------3---5---3-------|
---------------------|--------------------7-5-|--7-----------------|---------------------5-3-|
---------------------|------------------------|--------------------|-------------------------|
---------------------|------------------------|--------------------|-------------------------|
---------------------|------------------------|--------------------|-------------------------|


                                              III                                             
  H        H           Q.     E  Q    Q       E.  E.  E  E.  E.  E     E.  E.  E  E.  E.  E   
--------------------|----------------------|------------------------|------------------------|
--------------------|----------------------|---------------------3--|---------------------3--|
--5-----------------|---------5--3----2----|--3---3---3--3---5------|--4---4---4--4---5------|
--------------------|----------------------|------------------------|------------------------|
--------------------|----------------------|------------------------|------------------------|
--------------------|----------------------|------------------------|------------------------|


                                 V                                                               
  H        E  Q    E     Q    E  E  Q    Q       E.  E.  E  E.  E.  E     E.  E.  E  E.  E.  E   
----------------------|-----------------------|--5---5---5--5---6---5--|--5---6---5--8---6---5--|
--6--------L--5----4--|--5-------5--6----8----|------------------------|------------------------|
----------------------|-----------------------|------------------------|------------------------|
----------------------|-----------------------|------------------------|------------------------|
----------------------|-----------------------|------------------------|------------------------|
----------------------|-----------------------|------------------------|------------------------|


  H.           Q       Q.     E  Q    Q       E.  E.  E  E.  E.  E     E.  E.  E  E.  E.  E   
--5-----------------|------------5----6----|--8---8---8--8---6---6--|--6---5---5--5---4---4--|
---------------8----|---------8------------|------------------------|------------------------|
--------------------|----------------------|------------------------|------------------------|
--------------------|----------------------|------------------------|------------------------|
--------------------|----------------------|------------------------|------------------------|
--------------------|----------------------|------------------------|------------------------|


                               V                                            III              
    W                   Q.     E  E.  E.  S S    W                   Q.     E   E.  E.  S S  
--4g5----------------|---------5--6---5-------|-------------------|---------3---5---3-------|
---------------------|--------------------8-6-|--8----------------|---------------------6-5-|
---------------------|------------------------|-------------------|-------------------------|
---------------------|------------------------|-------------------|-------------------------|
---------------------|------------------------|-------------------|-------------------------|
---------------------|------------------------|-------------------|-------------------------|


                              V                                                                
  H        H           Q.     E  E.  E.  S S    E.  E.  E  E.  E.  E     E.  E.  E  Q    Q     
--------------------|------------------------|------------------------|-----------------------|
--6-----------------|---------6--8---6---5---|--5---5---5--5---6---5--|--5---6---5--6---------|
--------------------|----------------------7-|------------------------|------------------7----|
--------------------|------------------------|------------------------|-----------------------|
--------------------|------------------------|------------------------|-----------------------|
--------------------|------------------------|------------------------|-----------------------|


                                         I                                               
  H        Q.     S S    Q.     E  Q     E  E     H        H           W                 
----------------------|------------------------|--------------------|-------------------|
--6--------L------5---|--5------5--6s----2--3--|--L-----------------|-------------------|
--------------------7-|------------------------|--------------------|-------------------|
----------------------|------------------------|--------------------|-------------------|
----------------------|------------------------|--------------------|-------------------|
----------------------|------------------------|--------------------|-------------------|


  IV                                                                                                
  H        E.  E.  S S    Q.     E  E.  E.  S S    H        E  S S S S S S    S S E  Q    H         
-----------------------|------------------------|--------------------------|-----------------------|
--5--------------------|--5------5--------------|--------------------------|-----------------------|
---------------4---5-7-|------------7---5---4---|--4---------------4-5-7-5-|--4--------------------|
-----------7-----------|----------------------7-|--------------5-7---------|----7-5--L-------------|
-----------------------|------------------------|--------------------------|-----------------------|
-----------------------|------------------------|--------------------------|-----------------------|


  Q.     S S E.   E.  E     Q.     S S E.   E.  E     Q.     S S E.  E.   E   
-------------------------|----------------------7--|--8------8-8-8---7-------|
--8------8-8-8---10---8--|--8------8-8-8---10------|---------------------10--|
-------------------------|-------------------------|-------------------------|
-------------------------|-------------------------|-------------------------|
-------------------------|-------------------------|-------------------------|
-------------------------|-------------------------|-------------------------|


                          IX                                                      
   Q.      S  S  E.  E.   E     E.  E.  E  E.  E.  E     E.  E.  E  E.   E.   E   
---------------------7-------|--9---9---9--9---9---9--|--9---9---9--9---10---12--|
--10------10-10-10-------10--|------------------------|--------------------------|
-----------------------------|------------------------|--------------------------|
-----------------------------|------------------------|--------------------------|
-----------------------------|------------------------|--------------------------|
-----------------------------|------------------------|--------------------------|


                                                        IV                              
   H.           Q       W                   H        E  Q    E     Q.     E  Q.     E   
--10-----------------|-------------------|--------------5-------|--5---------4---------|
---------------------|-------------------|-------------------5--|---------5---------5--|
---------------------|-------------------|----------------------|----------------------|
---------------------|-------------------|----------------------|----------------------|
---------------------|-------------------|----------------------|----------------------|
---------------------|-------------------|----------------------|----------------------|


  H.           E  E     Q.     E  Q.     E     W                   Q.     E  Q    Q      
--5------------------|--5---------4---------|--5----------------|------------x---------||
------------------5--|---------5---------5--|-------------------|----------------------||
---------------------|----------------------|-------------------|----------------------||
---------------------|----------------------|-------------------|---------x------------||
---------------------|----------------------|-------------------|----------------------||
---------------------|----------------------|-------------------|----------------------||




Duration Legend
---------------
W - whole
H - half
Q - quarter
E - 8th
S - 16th
. - note dotted


Tablature Legend
----------------
L - tied note
x - dead note
s - legato slide

---------------------------------------------------------

Theme of Morroc                             
from Ragnarök Online
originally composed by Kwak Dong-Il
arranged by Marcus Kasperski

Standard Tuning | Moderato

                                III                                                               
     W                   Q.     E   E.  E.  E     Q    E  E  E.  E.  E     E.  E.  E  E.  E.  E   
E||-------------------|------------------------|------------------------|------------------------|
B||-------------------|---------5---5---3------|-----------------3---5--|--5---3------5---3------|
G||-------------------|---------------------5--|--5-------5--5----------|----------5----------5--|
D||-------------------|------------------------|------------------------|------------------------|
A||-------------------|------------------------|------------------------|------------------------|
E||-------------------|------------------------|------------------------|------------------------|


                               IV                                                                  
  Q.     Q.     Q       Q.     S  S E.  E.  E     E.  E.  E  E.  E.  E     E.  E.  E  E.  E.  S S  
---------------------|-------------------------|------------------------|-------------------------|
---------5-----------|-------------------------|------5---6--6---5------|-------------------------|
--4------------------|---------4--4-4---5---7--|--7------------------7--|------4---4--5---7---5-4-|
---------------------|-------------------------|------------------------|--6----------------------|
---------------------|-------------------------|------------------------|-------------------------|
---------------------|-------------------------|------------------------|-------------------------|


  H        H           H        Q.     E     E.  E.  E  E.  E.  E     E.  E.  E  E.  E.  E   
--------------------|---------------------|------------------------|------------------------|
--------------------|---------------------|------------------------|------------------------|
--------------------|---------------------|--6---6---6--6---6---6--|--6---6---6--6---6---6--|
--7-----------------|------------------7--|------------------------|------------------------|
--------------------|---------------------|------------------------|------------------------|
--------------------|---------------------|------------------------|------------------------|


  H        H           Q.     E  Q    Q       E.  E.  E  E.  E.  E     E.  E.  E  E.  E.  E   
--------------------|----------------------|------------------------|------------------------|
--------------------|----------------------|------------------------|------------------------|
--7-----------------|------------4----5----|--7---7---7--7---5---5--|--5---4---4--4----------|
--------------------|---------7------------|------------------------|-----------------7---5--|
--------------------|----------------------|------------------------|------------------------|
--------------------|----------------------|------------------------|------------------------|


                             II                                                            
  W                   Q.     E  E.  E.  S S    H        H           Q.     E  E.  E.  S S  
-------------------|------------------------|--------------------|------------------------|
-------------------|------------------------|--------------------|------------------------|
-------------------|------------2-----------|--------------------|------------------------|
--5----------------|---------5------5---3-2-|--3-----------------|---------3--5---3---2---|
-------------------|------------------------|--------------------|----------------------5-|
-------------------|------------------------|--------------------|------------------------|


                              V               IV                                           
  H        H           Q.     E  Q    Q       Q    Q    Q    Q       Q    Q    E.  E.  E   
--------------------|----------------------|----------------------|-----------------------|
--------------------|----------------------|----------------------|-----------------------|
--------------------|----------------------|----------------------|--------------------4--|
--2-----------------|---------7--5---------|--5---------5---------|--6---------6---7------|
--------------------|-----------------8----|-------5---------5----|-------5---------------|
--------------------|----------------------|----------------------|-----------------------|


                             V                                                               
  W                   Q.     E  Q    Q       E.  E.  E  E.  E.  E     E.  E.  E  E.  E.  E   
-------------------|----------------------|------------------------|------------------------|
-------------------|----------------------|------------------------|------------------------|
-------------------|----------------------|------------------------|------------------------|
--7----------------|---------8--7----5----|---------------------7--|---------------------7--|
-------------------|----------------------|--5---5---5--5---8------|--5---5---5--5---8------|
-------------------|----------------------|------------------------|------------------------|


                             VIII                            VII                    
  W                   Q.     S     S  S S  S S  S  S S  S    E.  E.  E  E.  E.  E   
-------------------|--------------------8-10-8------------|------------------------|
-------------------|---------8----10-11--------11-10-8----|------------------------|
-------------------|-----------------------------------10-|--9---9---9--9---7---7--|
--5----------------|--------------------------------------|------------------------|
-------------------|--------------------------------------|------------------------|
-------------------|--------------------------------------|------------------------|


  E.   E.   E   E.  E.  E      W                   H        E   S S  S S S  S    W                 
---------------------------|--------------------|-----------------------------|-------------------|
---------------------------|--------------------|-----------------------------|-------------------|
--7------------------------|--------------------|-----------------------------|--7----------------|
------10---10--10---8---8--|--10----------------|----------------------7-8-10-|-------------------|
---------------------------|--------------------|--------------10-8-10--------|-------------------|
---------------------------|--------------------|-----------------------------|-------------------|


                             III                                                             
  W                   Q.     S   S E.  E.  E     H        H           E.  E.  E  E.  E.  E   
-------------------|---------1---1-1----------|--------------------|------------------------|
-------------------|-------------------5---3--|--3-----------------|-----------------3------|
-------------------|--------------------------|--------------------|---------------------6--|
-------------------|--------------------------|--------------------|--5---5---5--5----------|
-------------------|--------------------------|--------------------|------------------------|
-------------------|--------------------------|--------------------|------------------------|


  E.  E.  E  Q    Q       H        Q.     S S    W                   W                 
-----------------------|----------------------|-------------------|-------------------|
-------------3---------|----------------------|-------------------|-------------------|
--4---4---4-------4----|--2--------L------2-3-|--2----------------|-------------------|
-----------------------|----------------------|-------------------|-------------------|
-----------------------|----------------------|-------------------|-------------------|
-----------------------|----------------------|-------------------|-------------------|


  W                   W                   W                   W                   W                 
-------------------|-------------------|-------------------|-------------------|-------------------|
-------------------|-------------------|-------------------|-------------------|-------------------|
-------------------|-------------------|-------------------|-------------------|-------------------|
-------------------|-------------------|-------------------|-------------------|-------------------|
-------------------|-------------------|-------------------|-------------------|-------------------|
-------------------|-------------------|-------------------|-------------------|-------------------|


  IV                                                                                                
  Q.     S S E.  E.  E     Q.     S S E.  E.  E     Q.     S S E.  E.  E     Q.     S S E.  E.  E   
------------------------|------------------------|------------------------|------------------------|
------------------------|------------------------|------------------------|------------------------|
--4------4-4-4---5---4--|--4------4-4-4---5---7--|--5------5-5-5---4------|-----------------4------|
------------------------|------------------------|---------------------7--|--7------7-7-7-------7--|
------------------------|------------------------|------------------------|------------------------|
------------------------|------------------------|------------------------|------------------------|


  E.  E.  E  E.  E.  E     E.  E.  E  E.  E.  E     H.           Q       W                 
------------------------|------------------------|--------------------|-------------------|
--5---5---5--5---5---5--|--5---5---5--5----------|--------------------|-------------------|
------------------------|-----------------7---6--|--7-----------------|-------------------|
------------------------|------------------------|--------------------|-------------------|
------------------------|------------------------|--------------------|-------------------|
------------------------|------------------------|--------------------|-------------------|


              II                                                                           
  H        E  Q    E     Q.     E  Q.     E     H.           E  E     Q.     E  Q.     E   
----------------------|----------------------|---------------------|----------------------|
----------------------|----------------------|---------------------|----------------------|
--------------5----2--|--5------2--4------2--|--2---------------2--|--5------2--4------2--|
----------------------|----------------------|---------------------|----------------------|
----------------------|----------------------|---------------------|----------------------|
----------------------|----------------------|---------------------|----------------------|


  W                   Q.     E  Q    Q      
-------------------|------------x---------||
-------------------|----------------------||
--2----------------|----------------------||
-------------------|---------x------------||
-------------------|----------------------||
-------------------|----------------------||




Duration Legend
---------------
W - whole
H - half
Q - quarter
E - 8th
S - 16th
. - note dotted


Tablature Legend
----------------
L - tied note
x - dead note

---------------------------------------------------------

Theme of Morroc                             
from Ragnarök Online
originally composed by Kwak Dong-Il
arranged by Marcus Kasperski

Standard Tuning | Moderato

     W                   W                   W                   W                 
E||-------------------|-------------------|-------------------|-------------------|
B||-------------------|-------------------|-------------------|-------------------|
G||-------------------|-------------------|-------------------|-------------------|
D||-------------------|-------------------|-------------------|-------------------|
A||-------------------|-------------------|-------------------|-------------------|
E||-------------------|-------------------|-------------------|-------------------|


  TP                                                                                       
  Q.     Q    S S S S S S    S S E  Q    H           W                   W                 
--5---------------4-5-7-5-|--4--------------------|-------------------|-------------------|
--------------5-6---------|----6-5--L-------------|-------------------|-------------------|
--------------------------|-----------------------|-------------------|-------------------|
--------------------------|-----------------------|-------------------|-------------------|
--------------------------|-----------------------|-------------------|-------------------|
--------------------------|-----------------------|-------------------|-------------------|


                                                   TP                   TP                 
  Q.     S S E.  E.  E     S S E  Q    H           H        H           H        H         
---------------------0--|------0--L-------------|--6-----------------|--5-----------------|
-----------0-1---3------|----3------------------|--------------------|--------------------|
---------2--------------|--5--------------------|--------------------|--------------------|
------------------------|-----------------------|--------------------|--------------------|
------------------------|-----------------------|--------------------|--------------------|
------------------------|-----------------------|--------------------|--------------------|


  TP                                                     TP                    TP             
  Q.     E  S S S S S S S S    Q    H.              Q    Q    H           Q    Q    H         
--5---------------3-5-3-----|--------------------|-------7-------------|-------3-------------|
------------3-5-6-------6-5-|--3-----------------|---------------------|---------------------|
----------------------------|--------------------|---------------------|---------------------|
----------------------------|--------------------|---------------------|---------------------|
----------------------------|--------------------|---------------------|---------------------|
----------------------------|--------------------|---------------------|---------------------|


  TP                                                                                 
  W                   W                   Q.     E  E.  E.  E     H        H         
--0----------------|-------------------|----------------0---1--|--1-----------------|
-------------------|-------------------|---------3--3----------|--------------------|
-------------------|-------------------|-----------------------|--------------------|
-------------------|-------------------|-----------------------|--------------------|
-------------------|-------------------|-----------------------|--------------------|
-------------------|-------------------|-----------------------|--------------------|


  Q.     E  E.  E.  E     H        H           E.  E.  Q.     Q       E.  E.  Q.     Q     
--------------------0--|--1-----------------|----------1-----------|----------1-----------|
---------1--1---3------|--------------------|------3---3-----------|------3---3-----------|
-----------------------|--------------------|------3---3-----------|------4---4-----------|
-----------------------|--------------------|----------0-----------|----------0-----------|
-----------------------|--------------------|------1---------------|------2---------------|
-----------------------|--------------------|----------------------|----------------------|


  TP                   TP                   TP                  TP                
  H        H           H        H           W                   W                 
--1-----------------|--0-----------------|--5----------------|--5----------------|
--------------------|--------------------|-------------------|-------------------|
--------------------|--------------------|-------------------|-------------------|
--------------------|--------------------|-------------------|-------------------|
--------------------|--------------------|-------------------|-------------------|
--------------------|--------------------|-------------------|-------------------|


  TP                  TP       TP   TP           TP                    TP             
  W                   H        Q    Q       Q    Q    H           Q    Q    H         
--3----------------|--3--------5----6----|-------8-------------|-------5-------------|
-------------------|---------------------|---------------------|---------------------|
-------------------|---------------------|---------------------|---------------------|
-------------------|---------------------|---------------------|---------------------|
-------------------|---------------------|---------------------|---------------------|
-------------------|---------------------|---------------------|---------------------|


  TP                                      TP                                      TP                
  W                   W                   W                   W                   W                 
--5----------------|-------------------|--3----------------|--L----------------|--1----------------|
-------------------|-------------------|-------------------|-------------------|-------------------|
-------------------|-------------------|-------------------|-------------------|-------------------|
-------------------|-------------------|-------------------|-------------------|-------------------|
-------------------|-------------------|-------------------|-------------------|-------------------|
-------------------|-------------------|-------------------|-------------------|-------------------|


                      TP                                      TP                  TP                
  W                   W                   W                   W                   W                 
--L----------------|--0----------------|--L----------------|--1----------------|--0----------------|
-------------------|-------------------|-------------------|-------------------|-------------------|
-------------------|-------------------|-------------------|-------------------|-------------------|
-------------------|-------------------|-------------------|-------------------|-------------------|
-------------------|-------------------|-------------------|-------------------|-------------------|
-------------------|-------------------|-------------------|-------------------|-------------------|


  TP                                       TP                   TP                
  W                   W                    W                    W                 
-------------------|-------------------|--12----------------|--12----------------|
--3----------------|-------------------|--------------------|--------------------|
-------------------|-------------------|--------------------|--------------------|
-------------------|-------------------|--------------------|--------------------|
-------------------|-------------------|--------------------|--------------------|
-------------------|-------------------|--------------------|--------------------|


  TP                  TP                   TP                   TP                
  W                   W                    W                    W                 
--7----------------|--7----------------|--10----------------|--10----------------|
-------------------|-------------------|--------------------|--------------------|
-------------------|-------------------|--------------------|--------------------|
-------------------|-------------------|--------------------|--------------------|
-------------------|-------------------|--------------------|--------------------|
-------------------|-------------------|--------------------|--------------------|


  TP                  TP                    TP            TP       TP        TP   TP   TP  
  W                   H        H            H.            Q        H         E.   E.   E   
--8----------------|--5-----------------|--18------------17----|--15--------15---13---12--|
-------------------|--------------------|----------------------|--------------------------|
-------------------|--------------------|----------------------|--------------------------|
-------------------|--------------------|----------------------|--------------------------|
-------------------|--------------------|----------------------|--------------------------|
-------------------|--------------------|----------------------|--------------------------|


   TP            TP       TP            TP       TP                   TP        TP         
   H.            Q        H.            Q        H.           Q       Q.     E  Q.     E   
--13------------12----|--10------------13----|--12-----------------|--8---------7---------|
----------------------|----------------------|---------------------|----------------------|
----------------------|----------------------|---------------------|----------------------|
----------------------|----------------------|---------------------|----------------------|
----------------------|----------------------|---------------------|----------------------|
----------------------|----------------------|---------------------|----------------------|


  TP                   TP        TP           TP                                     
  H.           Q       Q.     E  Q.     E     W                   W                  
--5-----------------|--8---------7---------|--5----------------|-------------------||
--------------------|----------------------|-------------------|-------------------||
--------------------|----------------------|-------------------|-------------------||
--------------------|----------------------|-------------------|-------------------||
--------------------|----------------------|-------------------|-------------------||
--------------------|----------------------|-------------------|-------------------||




Duration Legend
---------------
W - whole
H - half
Q - quarter
E - 8th
S - 16th
. - note dotted


Tablature Legend
----------------
L - tied note
TP - Tremolo Picking

---------------------------------------------------------

Theme of Morroc                             
from Ragnarök Online
originally composed by Kwak Dong-Il
arranged by Marcus Kasperski

Standard Tuning | Moderato

                                       ^                         ^                  
     H        Q    Q       Q       E.  E.  E  E  E  E  E     E.  E.  E  E  Q    E   
E||---------------------|-------|-------------------------|------------------------|
B||---------------------|-------|------1---1-----1-----1--|------1---1-----1----1--|
G||---------------------|-------|------2---2-----2-----2--|------2---2-----2----2--|
D||----------------2----|-------|------2------------2-----|------2------2----------|
A||--0--------3---------|--0----|--0----------3-----------|--0---------------------|
E||---------------------|-------|-------------------------|------------------------|


      ^                         ^                         ^                   
  E.  E.  E  E  E  E  E     E.  E.  E  E  E  E  E     E.  E.  E  E  E  E  E   
-------------------------|-------------------------|-------------------------|
------0---0-----0-----0--|------0---0-----0-----0--|------0---0-----0-----0--|
------1---1-----1-----1--|------1---1-----1-----1--|------1---1-----1-----1--|
------2------------------|------2------------------|------2------------------|
-------------------2-----|-------------------2-----|-------------2-----------|
--0----------4-----------|--0----------4-----------|--0----------------4-----|


      ^                         ^                         ^                 
  E.  E.  E  E  E  E  E     E.  E.  E  E  E  E  E     E.  E.  E  Q    Q     
-------------------------|-------------------------|-----------------------|
------0---0-----0-----0--|------1---1-----1-----1--|------1---1------------|
------1---1-----1-----1--|------2---2-----2-----2--|------2---2------------|
------2------------------|------2------------2-----|------2----------------|
-------------------2-----|--0----------3-----------|--0---------------0----|
--0----------4-----------|-------------------------|-------------0---------|


      ^                         ^                         ^                   
  E.  E.  E  E  E  E  E     E.  E.  E  E  E  E  E     E.  E.  E  E  E  E  E   
-------------------------|-------------------------|------1---1--------------|
------2---2-----2-----2--|------2---2-----2-----2--|------3---3-----3-----3--|
------2---2-----2-----2--|------2---2-----2-----2--|------2---------2-----2--|
------2------------2-----|------2------2-----------|--0----------------------|
--0----------4-----------|--0----------------4-----|-------------------0-----|
-------------------------|-------------------------|-------------1-----------|


      ^                         ^                         ^                   
  E.  E.  E  E  E  E  E     E.  E.  E  E  E  E  E     E.  E.  E  E  E  E  E   
------1---1--------------|-------------------------|-------------------------|
------3---3-----3-----3--|------3---3-----3-----3--|------3---3-----3-----3--|
------2---------2-----2--|------4---4-----4-----4--|------4---4-----4-----4--|
--0----------------------|------5------------0-----|------5------0-----------|
-------------------0-----|-------------2-----------|-------------------2-----|
-------------1-----------|--3----------------------|--3----------------------|


      ^                         ^                         ^                   
  E.  E.  E  E  E  E  E     E.  E.  E  E  E  E  E     E.  E.  E  E  E  E  E   
-------------------------|------3------------------|------1------------------|
------1---1-----1-----1--|------1---1-----1-----1--|------3---3-----3-----3--|
------0---0-----0-----0--|------0---0-----0-----0--|------3---3-----3-----3--|
------2------------------|-------------------2-----|-------------0-----3-----|
--3----------------------|--3----------------------|--1----------------------|
-------------0-----3-----|-------------3-----------|-------------------------|


      ^                         ^                         ^                   
  E.  E.  E  E  E  E  E     E.  E.  E  E  E  E  E     E.  E.  E  E  E  E  E   
------1------------------|-------------------------|-------------------------|
------3---3-----3-----3--|------1---1-----1-----1--|------1---1-----1-----1--|
------3---3-----3-----3--|------2---2-----2-----2--|------2---2-----2-----2--|
-------------0-----3-----|------2------------3-----|------2------------3-----|
--1----------------------|--0----------3-----------|--0----------3-----------|
-------------------------|-------------------------|-------------------------|


      ^                       ^                       ^                       ^                 
  E.  E.  E  Q    Q       E.  E.  E  Q    Q       E.  E.  E  Q    Q       E.  E.  E  Q    Q     
-----------------------|-----------------------|-----------------------|-----------------------|
------3---3------------|------3---3------------|------2---2------------|------2---2------------|
------3---3------------|------4---4------------|------2---2------------|------2---2------------|
------0------0----3----|------0------0----3----|------3-----------2----|------2-----------2----|
--1--------------------|--2--------------------|--0----------4---------|--0----------4---------|
-----------------------|-----------------------|-----------------------|-----------------------|


      ^                         ^                         ^                   
  E.  E.  E  E  E  E  E     E.  E.  E  E  E  E  E     E.  E.  E  E  E  E  E   
------1------------------|------1------------------|------3------------------|
------3---3-----3-----3--|------3---3-----3-----3--|------3---3-----3-----3--|
------2---2-----2-----2--|------2---2-----2-----2--|------3---3-----3-----3--|
--0----------3-----------|--0----------3-----------|-------------------------|
-------------------0-----|-------------------0-----|-------------------5-----|
-------------------------|-------------------------|--3----------6-----------|


      ^                         ^                         ^                   
  E.  E.  E  E  E  E  E     E.  E.  E  E  E  E  E     E.  E.  E  E  E  E  E   
------3------------------|-------------------------|-------------------------|
------3---3-----3-----3--|------1---1-----1-----1--|------1---1-----1-----1--|
------3---3-----3-----3--|------0---0-----0-----0--|------0---0-----0-----0--|
-------------------------|------2------------------|------2------------------|
-------------------5-----|--3----------------------|--3----------------------|
--3----------6-----------|-------------0-----3-----|-------------3-----0-----|


      ^                         ^                         ^                   
  E.  E.  E  E  E  E  E     E.  E.  E  E  E  E  E     E.  E.  E  E  E  E  E   
-------------------------|-------------------------|-------------------------|
------1---1-----1-----1--|------1---1-----1-----1--|------3---3-----3-----3--|
------2---2-----2-----2--|------2---2-----2-----2--|------3---3-----3-----3--|
------3------------------|------3------------------|------0------------0-----|
-------------0-----3-----|-------------0-----3-----|-------------1-----------|
--1----------------------|--1----------------------|--3----------------------|


      ^                         ^                         ^                   
  E.  E.  E  E  E  E  E     E.  E.  E  E  E  E  E     E.  E.  E  E  E  E  E   
-------------------------|-------------------------|-------------------------|
------3---3-----3-----3--|------1---1-----1-----1--|------1---1-----1-----1--|
------3---3-----3-----3--|------2---2-----2-----2--|------2---2-----2-----2--|
------0------------0-----|------3------------------|------3------------------|
-------------1-----------|-------------0-----3-----|-------------0-----3-----|
--3----------------------|--1----------------------|--1----------------------|


      ^                         ^                          ^                                       
  E.  E.  E  E  E  E  E     E.  S E  E  E  E  E  E     E.  E.  E  E  E  E  E     W                 
-------------------------|--------------------------|-------------------------|-------------------|
------3---3-----3-----3--|------0----0-----0-----0--|------2---2-----2-----2--|-------------------|
------3---3-----3-----3--|------1----1-----1-----1--|------2---2-----2-----2--|-------------------|
------0------------0-----|------3-------0-----------|------2------------2-----|-------------------|
-------------1-----------|--------2-----------------|--0----------4-----------|--0----------------|
--3----------------------|--4-----------------4-----|-------------------------|-------------------|


      ^                                            ^                         ^                   
  E.  E.  E  Q    Q       Q    Q    Q    E     E.  E.  E  E  E  E  E     E.  E.  E  E  E  E  E   
-----------------------|--------------------|-------------------------|-------------------------|
----------3------------|--------------------|------1---1-----1-----1--|------1---1-----1-----1--|
------2----------------|--------------------|------2---2-----2-----2--|------2---2-----2-----2--|
------3----------------|--0-----------------|------2------------2-----|------2------2-----------|
--5---------------0----|-------3----1-------|--0----------3-----------|--0----------------3-----|
-------------1---------|-----------------3--|-------------------------|-------------------------|


      ^                         ^                         ^                   
  E.  E.  E  E  E  E  E     E.  E.  E  E  E  E  E     E.  E.  E  E  E  E  E   
-------------------------|-------------------------|-------------------------|
------3---3-----3-----3--|------3---3-----3-----3--|------3---3-----3-----3--|
------4---4-----4-----4--|------4---4-----4-----4--|------4---4-----4-----4--|
------5------------0-----|------5------0-----------|------5------------0-----|
-------------2-----------|-------------------2-----|-------------2-----------|
--3----------------------|--3----------------------|--3----------------------|


      ^                         ^                         ^                   
  E.  E.  E  E  E  E  E     E.  E.  E  E  E  E  E     E.  E.  E  E  E  E  E   
-------------------------|-------------------------|-------------------------|
------3---3-----3-----3--|------1---1-----1-----1--|------1---1-----1-----1--|
------4---4-----4-----4--|------2---2-----2-----2--|------2---2-----2-----2--|
------5------0-----------|------2------------2-----|------2------2-----------|
-------------------2-----|--0----------3-----------|--0----------------3-----|
--3----------------------|-------------------------|-------------------------|


      ^                         ^                         ^                   
  E.  E.  E  E  E  E  E     E.  E.  E  E  S E.  E     E.  E.  E  E  E  E  E   
-------------------------|-------------------------|------1------------------|
------2---2-----2-----2--|------2---2-----2-----2--|------3---3-----3-----3--|
------2---2-----2-----2--|------2---2-----2-----2--|------2---2-----2-----2--|
------2------------2-----|------2------2-----------|--0----------------------|
--0----------4-----------|--0---------------5---4--|-------------------0-----|
-------------------------|-------------------------|-------------1-----------|


      ^                         ^                         ^          ^       
  E.  E.  E  E  E  E  E     E.  E.  E  E  E  E  E     E.  E.  E  E.  E.  E   
------1------------------|------0------------------|------1----------0------|
------3---3-----3-----3--|------1---1-----1-----1--|------1----------0------|
------2---2-----2-----2--|------2---2-----2-----2--|------2----------1------|
--0----------------------|-------------------------|---------------------2--|
-------------------0-----|--0----------3-----------|----------0-------------|
-------------1-----------|-------------------0-----|--1----------0----------|


      ^                         ^          ^             ^                   
  E.  E.  E  E  E  E  E     E.  E.  E  E.  E.  E     E.  E.  E  E  E  E  E   
-------------------------|------1----------0------|-------------------------|
------1---1-----1-----1--|------1----------0------|------1---1-----1-----1--|
------2---2-----2-----2--|------2----------1------|------2---2-----2-----2--|
------2------------------|---------------------2--|------2------------2-----|
--0----------3-----------|----------0-------------|--0----------3-----------|
-------------------0-----|--1----------0----------|-------------------------|


  Q.     E  Q    Q      
----------------------||
----------------------||
----------------------||
----------------------||
--0---------0---------||
---------0------------||




Duration Legend
---------------
W - whole
H - half
Q - quarter
E - 8th
. - note dotted


Tablature Legend
----------------
L - tied note
v - brush down
        
Comments

@dakuww (December 23, 2011 at 5:53 PM)

great, brings me memories ;D


@hslesperance (December 29, 2011 at 2:13 PM)

This is a fantastic quartet!


@JhanCho (October 03, 2018 at 10:33 AM)

Awesome