Gametabs
Home
Tabs
Random

Line Haluto

Average rating: 5.000

1 ratings

Composer:

Tabber:

Style:

Instrument:

Created: August 26, 2010 at 12:00 AM

            Title: Line Haluto
Game: Ragnarok online II
Composed by: Yoko Kanno
Tabber: Shruikan1405 

This is the guitar part of line haluto, the rest of the song is the same but played in a symphonic way.  
smoothly

E||----0-0------------|----0-2-0------------|----0-2-----3-----0--|-0--0-2-0---0------------|
B||-0----------0--3---|-3------------0---3--|-3------0---5-----3--|----------3-------0---3--|
G||------------0--2---|--------------0-0-2--|------------4--4--4--|------------------0-0-2--|
D||------------2--0---|--------------2---0--|--------2-2-2--------|------------------2---0--|
A||---------2---------|-----------2---------|---------------------|---------------2---------|
E||------0------------|--------0------------|------------------0--|------------0------------|


E|-----------------------------|-0------------|----0-2-0------------|----0-2-----3-----0--|
B|-----0--3--2---3-2-0---3=>5--|-------0---3--|-3------------0---3--|-3------0---5-----3--|
G|-----------4-----------------|-------0-0-2--|--------------0-0-2--|------------4--4--4--|
D|-----2-----5-----------------|-------2---0--|--------------2---0--|--------2-2-2--------|
A|---2-------------------------|----2---------|-----------2---------|---------------------|
E|-0---------------------------|-0------------|--------0------------|------------------0--|


E|-0--0-2-0---0------------|--------------|----12--15---7---5-----|-5-10--14---5---3--|
B|----------3-------0---3--|-------0---3--|-12-----------------3--|----------------0--|
G|------------------0-0-2--|-------0-0-2--|-----------------7--0--|-------------------|
D|------------------2---0--|-------2---0--|--------------------4--|-------------------|
A|---------------2---------|----2---------|---------------7-------|--------------9----|
E|------------0------------|-0------------|-------------8---------|------------7------|


E|------12--11--7---3--2-0-7--|-----------9--14--17- 9---7-----|-7--12--16-7------5--|----14--17-9---7------|
B|---8------------------------|--------------------------------|------------------2--|-14--------------7----|
G|---0------------------------|--------------------------------|---------------------|---------------7---7--|
D|-------9------7------1---6--|---6----8-----------------9--6--|---------------------|----------------------|
A|--------------6------2---7--|-7---7--9---------------9----7--|--------------11-----|-------------9--------|
E|-7--------------------------|---------------------10------7--|-----------9---------|-----------7----------|


E|-4--0--2------------------------|---------||
B|-5-----2------------------------|---------||
G|-4-----3------3---4------3---4--|---------||
D|-------4------4-4-0------4-4-0--|---------||
A|-4-----4----4----------4--------|---------||
E|-------2-------------2----------|----2----||
        
Comments

@Shruikan1405 (August 27, 2010 at 11:15 AM)

seems that the 4th line starts like this ^^"

E|------12--
B|---8------
G|---0------
D|------9---
A|----------
E|-7--------

if u still find some mistakes, please post.


@diralark (September 12, 2010 at 10:07 AM)

nice !