Gametabs
Home
Tabs
Random

Where the Wind and Feathers Return

Average rating: 5.000

3 ratings

Composer:

Tabber:

Style:

Instrument:

Created: March 11, 2012 at 12:00 AM

            Where the Wind and Feathers Return
Radiant Historia
Composed by Yoko Shimomura 
Tabbed by StealthyDirtbag with help from hslesperance




E||--6--5--1--3--1-----------|-------------------------|--6--5--------8-----6--5--|
B||--4-----------1-----3--4--|--3--1-----1-------------|--4-----6--8--6-----------|
G||--------0-----------------|--0-----3-----3-----2----|--------0-----------------|
D||-----0--------------3-----|--------1-----3-----3----|-----0--------------------|
A||-----------------3--------|-----1-----------3-------|--------------------8-----|
E||--------------------------|-------------------------|-----------------8--------|


--6--5--------8--|--6--5--1--3--1-----------|--------------------------|--6--5--------8-----6--5--|
--------6--8--6--|--3-----------1-----3--4--|--3--1-----1--------------|--3-----6--8--6-----------|
--7--------------|--------0-----------------|--0-----3-----3-----2-----|--------0-----------------|
-----------------|-----0-----0--------3-----|--------1-----3-----3-----|-----0-----0--------3-----|
--------6--------|-----------------3-----3--|-----1-----1-----3-----3--|-----------------3-----3--|
-----6-----------|--------------------------|--------------------------|--------------------------|


--6--5--3--5--8-----|--6--5--------------------|--------------------------|-----------------------|
--3-----------6-----|--------6--8--6--------4--|--3-----------------------|-----------1-----------|
--------------------|--7-----------5-----7-----|-----5--3--5--3-----2-----|--0--2--3-----3-----2--|
--------1-----------|--------------------------|--5-----------------------|--1--------0-----------|
-----1-----1--------|--------------------------|--------------3-----------|--------------3--------|
--------------------|--------6-----------6--5--|-----------3--------3-----|-----------------------|


--------------------------|--------------------------|-----------------||
--1-----------1--3--------|-----------1--------------|-----------------||
-----3--2--3--------2--0--|--0--2--3-----3-----2-----|--2--0-----------||
--0-----------------------|--------------------------|--0-----0--------||
--------3--1--0-----1-----|--1-----------3-----0-----|-----0--1--------||
--------------------------|--------3-----------------|-----------------||
        
Comments

No comments yet