Gametabs
Home
Tabs
Random

Normoon

Average rating: No ratings

Composer:

Tabber:

Style:

Instrument:

Created: July 28, 2019 at 12:00 AM

                                           QUEST 64 - NORMOON


  Q=100
 6/8
  Gtr I
  Q  E Q  E   Q  E Q  E   E. S E E E E
|-----------|-----------|----------1-3-|
|---------3-|-----------|-3--1-3-5-----|
|-2--2-2--2-|-2--2-2--2-|-2----2-2---2-|
|-0--0-0--0-|-0--0-0--0-|-0----0-0---0-|
|-----------|-----------|--------------|
|-----------|-----------|--------------|


  E. S  E  E E  E    E. S  E  E E  E    Q   E  Q   E
|-5--7------------|------------------|-----------------|
|------10--8-6----|-----8------------|-----------------|
|-2-------------9-|-10----10--9-7----|--7---7--7-------|
|-0-----7--7----7-|--7-----7------10-|--7---7--7---7---|
|-----------------|----------10---10-|-----------------|
|------10-10---10-|-10----10--8----8-|-10--10-10--10---|


   E. S E E E E   E. S  E  E E E   E. S E E E E
|---------------|-5--7-----------|----3-1-------|
|---------5-6-8-|------10--8-6-5-|-6------5-3---|
|--7--5-7-------|-2------------4-|------2-----5-|
|--7----7-7---7-|-0-----7--9---0-|-7----0-5---5-|
|-------5-5---5-|----------------|-5------3---3-|
|-10------------|------10-10-----|--------------|


  Q  E Q  E   E. S E E E E   Q  E Q  E
|-----------|----1---------|-----------|
|-3--5-3--3-|-5----8-8-6-5-|-6--5------|
|-2--2-2--2-|------0-0---0-|------7--7-|
|-0--0-0--0-|-5------------|-7--7-7--7-|
|-----------|-3------------|-5--5-5--5-|
|-----------|------8-8---8-|-----------|


  E. S E E E E    Q   E  Q   E    E. S E E E E
|--------------|---------------|---------------|
|-5--6-8-8-6-8-|-10--11-10-----|-----6-8-8-6-8-|
|-0----0-0---0-|---------------|--9----0-0---0-|
|--------------|-----10-----10-|---------------|
|--------------|---------------|-10------------|
|-8----8-8---8-|-13--13-13--13-|--8----8-8---8-|


   Q   E  Q   E    E. S E E E E   Q  E Q  E
|---------------|---------------|-5---------|
|-10---8--------|-----6-8-8-6-8-|-----------|
|--------10--10-|--9----0-0---0-|-----------|
|--7---7--7---7-|---------------|---------7-|
|---------------|-10------------|-7--7-7--7-|
|-10--10-10--10-|--8----8-6---6-|-5--5-5--5-|


  E. S E E E E   E. S  E  E E E   E. S E E E E
|--------------|-5--7-----------|----3-1-------|
|--------5-6-8-|------10--8-6-5-|-6------5-3---|
|-7--5-7-------|-2------------4-|------2-----5-|
|-7----7-7---7-|-0-----7--9---0-|-7----0-5---5-|
|-5----5-5---5-|----------------|-5------3---3-|
|--------------|------10-10-----|--------------|


  Q  E Q  E   Q  E Q  E   E. S  E  E  E  E
|-----------|-----------|-5--6-------------|
|-3--3-3----|-----------|------13-13-11-10-|
|-2--2-2--2-|-2--2-2--2-|-5----------------|
|-0--0-0--0-|-0--0-0--0-|-3----10-10----10-|
|-----------|-----------|------------------|
|-----------|-----------|------13-13----13-|


   E.  S  E  E S S  E    E. S  E  E E  E   E. S E E. S E
|---------------------|------------------|-----------6-5-|
|--8--10--8-----------|-----8-10-10-8----|-5--6-5--------|
|--0------0--9-7-7----|-10------------10-|-7------5--3-5-|
|-10-----10-10-----10-|-12-----7--7----7-|-7----7-7----7-|
|-----------10-----10-|-12---------------|-7----7-7----7-|
|--8------8--8------8-|-10----10-10---10-|-5----5-5------|


  E. S E E E E    Q   E  Q   E   E. S E E E E
|-6------------|---------------|--------3-1-3---|
|-3--5-6-8-6-8-|-10---8--------|----5-6---3-5---|
|-3--5-7-9-7-9-|-10--10-10---9-|-7--5-7-3---3---|
|-3----8-8---8-|-10--10-10--10-|-8----8-3---3---|
|------8-8---8-|--8---8--8---8-|-8----8---------|
|------6-------|---------------|-6----6-3---3---|


  Q  E Q  E   E. S E E E E   E. S E E E E
|-5--6-5----|------------3-|-5--7-5-3-----|
|-5---------|-3----3-5-6-0-|--------0-6-5-|
|-2--2-2--2-|-2--5-2-0---2-|-5--7-5-2-2-0-|
|-2--2-2--2-|-3--2-3-0-7-0-|-0----0-0---0-|
|-0--0-0--0-|--------------|--------------|
|-----------|--------------|--------------|


  E. S E E E E   Q  E Q  E   E. S E E E E
|----3-1-------|-----------|------------3-|
|-6--0---5-3-1-|-3--3-3----|-3----3-5-6-0-|
|------2-----0-|-2--2-2--2-|-2--5-2-0---2-|
|-7----0-5-3-2-|-0--0-0--0-|-3--2-3-0-7-0-|
|-5------3---3-|-----------|--------------|
|--------------|-----------|--------------|


  E. S E E E E   E. S E E E E   Q  E Q.
|-5--7-5-3-----|----3-1-------|-----------*|
|----------6-5-|-6--0---5-3-1-|-3--5------*|
|-5--7-5-4-2-4-|------2-----0-|-2--0-7----*|
|-0----0-0---0-|-7----0-5-3-2-|-3--0-7----*|
|--------------|-5------3---3-|------8----*|
|--------------|--------------|-----------*|


Duration Legend
---------------
W - whole; H - half; Q - quarter; E - 8th; S - 16th; T - 32nd; X - 64th; a - acciaccatura
+ - note tied to previous; . - note dotted; .. - note double dotted
Uncapitalized letters represent notes that are staccato (1/2 duration)
Irregular groupings are notated above the duration line
Duration letters will always appear directly above the note/fret number it represents the
duration for.  Duration letters with no fret number below them represent rests.  Multi-
bar rests are notated in the form Wxn, where n is the number of bars to rest for.  Low
melody durations appear below the staff

Tablature Legend
----------------
 h   - hammer-on
 p   - pull-off
 b   - bend
 pb  - pre-bend
 r   - bend release (if no number after the r, then release immediately)
 /\  - slide into or out of (from/to "nowhere")
 s   - legato slide
 S   - shift slide
  - natural harmonic
[n]  - artificial harmonic
n(n) - tapped harmonic
 ~   - vibrato
 tr  - trill
 T   - tap
 TP  - trem. picking
 PM  - palm muting
\n/  - tremolo bar dip; n = amount to dip
 \n  - tremolo bar down
 n/  - tremolo bar up
/n\  - tremolo bar inverted dip
 =   - hold bend; also acts as connecting device for hammers/pulls
 <>  - volume swell (louder/softer)
 x   - on rhythm slash represents muted slash
 o   - on rhythm slash represents single note slash

Misc Legend
-----------
 |  - bar
||  - double bar
||o - repeat start
o|| - repeat end
*|  - double bar (ending)
 :  - bar (freetime)
 $  - Segno
 &  - Coda
Tempo markers -  = BPM(8/16=s8/s16), where s8 = swing 8ths, s16 = swing 16ths


***************************************************************************************
* Generated using Power Tab Editor by Brad Larsen - http://powertab.guitarnetwork.org *
***************************************************************************************
        
Comments

@toadliy (July 31, 2019 at 10:46 PM)

Uh so I'm a moron and didn't check the exported .txt file before uploading it, so I didn't catch that Power Tab screwed up the fingerings. The correct version can be found here: https://drive.google.com/open?id=15q3yZtOIfDwBjqkhId5oxZIOyPhWKkLF