Gametabs
Home
Tabs
Random

Sis Puella Magica

Average rating: 4.667

3 ratings

Composer:

Tabber:

Style:

Instrument:

Created: February 14, 2014 at 12:00 AM

            Puella Magi Madoka Magica - Sis Puella Magica

Composed by Yuki Kajiura 

Arranged for Guitar by N0Stars

Gtr I (E A D G B E), Capo on Fret 3

    Q=140
   6/4
    Gtr I
    E E E E Q  Q  Q  Q    E E E E Q  Q    Q  Q
||--0-----2-3--2-----0--|-----0-2-3--2-------0----|
||o------------0--3--0--|------------0----3--0----|
||------0---------2-----|-----0-----------2-------|
||--2-----4-2--0--------|-2-----4-2--0------------|
||o---2-----------------|---2---------------------|
||--0----------------0--|-0------------------0----|


  1.
  E E E E Q  Q  Q  Q    E E Q  E E Q   Q  E E
|-0-----2-3--2-----2--|-2-3-0---------------------||
|---0--------0--3--0--|--------5-7-8--10--8-7----o||
|-0---0---------2-----|-----0---------------------||
|-2-----4-2--0-----0--|-2-------------------------||
|-3-------------------|--------------------------o||
|---------------------|-0-------------------------||


  2.
  E E E E Q  Q  Q  Q    E E Q   E   E   Q   E E E E
|-0-----2-3--5-----2--|-2-3-0---------------0-2-3-5----|
|---0--------3--3--0--|--------------------------------|
|-0---0---------2-----|-----0----------(0)-------------|
|-2-----4-2--0-----0--|-2------(2)-(4)-----------------|
|-3-------------------|--------------------------------|
|---------------------|-0-------------------0----------|


  Q  Q  E E E E Q  Q    E E Q   E   E   Q   E E E E
|-7--0----7-5-3-2--2--|-2-3-0---------------0-2-3-5----|
|-0--0----------------|--------------------------------|
|---------------2-----|-----0----------(0)-------------|
|-----------0------4--|-2------(2)-(4)-----------------|
|-3-----7-------------|--------------------------------|
|---------------------|-0-------------------0----------|


  Q  Q  E E E E Q  Q    E E Q   Q    Q    E  E E E
|-7--0----7-5-3-2--2--|-2-3-7-------------0--2-3-5----|
|-0--0----------------|-0------(0)--------------------|
|---------------2-----|-0----------------(0)----------|
|-----------0------4--|-------------(7)---------------|
|-3-----7-------------|-------------------------------|
|---------------------|-0-----------------0-----------|


  Q  Q  E E E E Q  Q    E E Q  Q  E E Q  Q
|-7--0----7-5-3-5--5--|-7-8-7-----5-7-5-------|
|-0--0-------------3--|-5---0-----------------|
|---------------2-----|-5------0------2-------|
|-------------0----4--|-------------0----4----|
|-3-----7---0---------|-0---------------------|
|---------------------|-----------7-----------|


  E E Q  Q  E E Q  Q    E E Q   E   E   Q     Q    E   E
|-3-5-3-----2-0----2--|-2-3-0-----------------------------|
|-----0---------3-----|--------(5)-(7)-(8)--(10)--(8)-(7)-|
|-----0---------------|-----0-----------------------------|
|--------2------4--0--|-2---------------------------------|
|-3---------2---------|-----------------------------------|
|---------------------|---------0-------0----------0------|


   E   E   Q    E   E   Q     Q    E   E
|------------------------------------------|
|-(5)-----(8)--(5)-(7)-(8)--(10)--(8)-(7)--|
|-----(4)----------------------------------|
|------------------------------------------|
|------------------------------------------|
|--0------------0-------0----------0-------|


                                       |-3-|
     E E E E Q  Q  E E Q    E E E E Q  S S S +E  E E Q
||--^0-----2-3--2------0--|-----0-2-3--2h3p2-(2)-----0----|
||o-^0----------0--3---0--|------------0---------3---0----|
||--^0---0---------2-0----|-----0----------------2-0------|
||--^2-----4-2--0---------|-2-----4-2--0------------------|
||o-^2-2------------------|---2---------------------------|
||--^0-----------------0--|-0------------------------0----|


  1.
  E E E E Q  Q  Q  Q    E E Q   E   E   Q     Q    E   E
|-0-----2-3--2-----2--|-2-3-0---------------------------------||
|---0--------0--3--0--|-0------(5)-(7)-(8)--(10)--(8)-(7)----o||
|-0---0---------2-----|-0---0---------------------------------||
|-2-----4-2--0-----0--|-2-------------------------------------||
|-3-------------------|--------------------------------------o||
|---------------------|-0-------0-------0----------0----------||


  2.
  E E E E Q  Q  Q  Q    E E E  E   E   E   E   E  E E E E
|-0-----2-3--5-----2--|-2-3-0---------------------0-2-3-5----|
|---0--------3--3--0--|-0-------------------------0----------|
|-0---0---------2-----|-0---0-------------(0)-(2)-----0------|
|-2-----4-2--0-----0--|-2-----(4)-(2)-(4)--------------------|
|-3-------------------|--------------------------------------|
|---------------------|-0-------------------------0----------|


  E E E E E E E E Q  Q    E E Q   E   E   E   E  E E E E
|-7---0-----7-5-3-2--2--|-2-3-0------------------0-2-3-5----|
|-0---0-----------3--3--|-0----------------------0----------|
|---0---0---------2-----|-0---0----------(0)-(2)-----0------|
|-------------0------4--|-2------(2)-(4)--------------------|
|-3-------7-------------|-----------------------------------|
|-----------------------|-0----------------------0----------|


  E E E E E E E E Q  Q    E E Q   E   E   E   E  E E E E
|-7---0-----7-5-3-2--2--|-2-3-7------------------0-2-3-5----|
|-0---0-----------3--3--|-0------(0)-------------0----------|
|---0---0---------2-----|-0----------(0)---------0---0------|
|-------------0------4--|----------------(7)-(4)------------|
|-3-------7-------------|-----------------------------------|
|-----------------------|-0----------------------0----------|


  E E E E E E E E Q  Q    E E Q  Q  E E Q  Q
|-7---0-----7-5-3-5--5--|-7-8-7-----5-7-5-------|
|-0---0--------------3--|-5---0---------3-------|
|---0---0---------2-----|-5------0------2-------|
|---------------0----4--|-------------0----4----|
|-3-------7---0---------|-0---------------------|
|-----------------------|-----------7-----------|


  E E Q  Q  E E Q  Q    E E Q  E E Q   Q  E E
|-3-5-3-----2-0----2--|-2-3-0--------------------|
|-----0---------3--3--|-0------5-7-8--10--8-7----|
|-----0------------2--|-----0--------------------|
|--------2------4--0--|-2------------------------|
|-3---------2---------|--------------------------|
|---------------------|--------0---0------0------|


  H.=H
   E E Q  E E Q   Q  Q       W.                +W.
|-^0--------------------|-^<12>------------|-(<12>)----*|
|----0-8--5-7-8--10--8--|-^<12>------------|-(<12>)----*|
|-^0--------------------|-^<12>------------|-(<12>)----*|
|-----------------------|------------------|-----------*|
|-----------------------|------------------|-----------*|
|-^0------0---0------0--|-^--0-------------|---(0)-----*|

Duration Legend
---------------
W - whole; H - half; Q - quarter; E - 8th; S - 16th; T - 32nd; X - 64th; a - acciaccatura
+ - note tied to previous; . - note dotted; .. - note double dotted
Uncapitalized letters represent notes that are staccato (1/2 duration)
Irregular groupings are notated above the duration line
Duration letters will always appear directly above the note/fret number it represents the
duration for.  Duration letters with no fret number below them represent rests.  Multi-
bar rests are notated in the form Wxn, where n is the number of bars to rest for.  Low
melody durations appear below the staff

Tablature Legend
----------------
 h   - hammer-on
 p   - pull-off
 b   - bend
 pb  - pre-bend
 r   - bend release (if no number after the r, then release immediately)
 /\  - slide into or out of (from/to "nowhere")
 s   - legato slide
 S   - shift slide
  - natural harmonic
[n]  - artificial harmonic
n(n) - tapped harmonic
 ~   - vibrato
 tr  - trill
 T   - tap
 TP  - trem. picking
 PM  - palm muting
\n/  - tremolo bar dip; n = amount to dip
 \n  - tremolo bar down
 n/  - tremolo bar up
/n\  - tremolo bar inverted dip
 =   - hold bend; also acts as connecting device for hammers/pulls
 <>  - volume swell (louder/softer)
 x   - on rhythm slash represents muted slash
 o   - on rhythm slash represents single note slash

Misc Legend
-----------
 |  - bar
||  - double bar
||o - repeat start
o|| - repeat end
*|  - double bar (ending)
 :  - bar (freetime)
 $  - Segno
 &  - Coda
Tempo markers -  = BPM(8/16=s8/s16), where s8 = swing 8ths, s16 = swing 16ths



***************************************************************************************
* Generated using Power Tab Editor by Brad Larsen - http://powertab.guitarnetwork.org *
***************************************************************************************
        
Comments

No comments yet